Limp Bizkit - Pollution Chords & Tabs

 

Pollution Chords & Tabs

Limp Bizkit Chords & Tabs

Version: 3 Type: Tab 0 ratings
1 star 2 stars 3 stars 4 stars 5 stars
comments

Pollution Tab

Song: Pollution
Band: Limp Bizkit
Album: Three Dollar Bill Y'all$
Tabbed by: Jed Wright  and Davey 

Palm Mute=*
Pinch Harmonics=#

On the repeat after Riff 2, add Pinch Harmonics to Riff 1a.

Riff 1a
C#-||-----------------------------------------------------------||
C#-||-----------------------------------------------------------||
G#-||*---------------------------------------------------------*||
E--||*---------------------------------------------------------*||
B--||-----------------------------------------------------------||
F#-||-----------------------------------------------------------||
C#-||---2~~~--0--3-----0--0--2--0--0--2~~~--0--3-----0--0--2^---||
                                                                        
Riff 1b
C#-||-----------------------------------------------------||
C#-||-----------------------------------------------------||
G#-||*---------------------------------------------------*||
E--||*---------------------------------------------------*||
B--||---4--------5--------4--------4--------5--------4----||
F#-||---4--------5--------4--------4--------5--------4----||
C#-||---2-----0--3--0--0--2--0--0--2-----0--3--0--0--2^---||
		   
Riff 2
C#-||---------------------------------------||
C#-||---------------------------------------||
G#-||*-------------------------------------*||
E--||*-------------------------------------*||
B--||---------------------------------------||
F#-||---------------------------------------||
C#-||---2--x--x--x--3^--x--2--2--x--x--3^---||
         *  *  *  *      *  *     *  *

[ Tab from: http://www.guitartabs.cc/tabs/l/limp_bizkit/pollution_tab_ver_3.html ]
Riff 3
C#-------------------------------------------------------||
C#-------------------------------------------------------||
G#------------------------------------------------------*||
E---3--3--3-----4-----3--------3--3--3-----4--------3---*||
B---3--3--3--2--4--2--3--\--2--3--3--3--2--4--2--2--3----||
F#--1--1--1--2--2--2--1--\--2--1--1--1--2--2--2--2--1^---||
C#-----------0-----0--------0-----------0-----0--0-------||


Riff 4/Interlude;  w/Flanger with all the knobs turned to the right.
C#-||----------------------||
C#-||----------------------||
G#-||*--------------------*||
E--||*--2--1--------5--4--*||
B--||----------------------||
F#-||----------------------||
C#-||----------------------||


Riff 4a/Interlude
C#-||-------------------------------------------------||
C#-||-------------------------------------------------||
G#-||*--------------------3-----------------------3--*||
E--||*--2--1--------5--4--------2--1--------5--4-----*||
B--||-------------------------------------------------||
F#-||-------------------------------------------------||
C#-||-------------------------------------------------||


Riff 5
C#-||----------------------------------------------------------------||
C#-||----------------------------------------------------------------||
G#-||*--------------------------------------------------------------*||
E--||*--------------------------------------------------------------*||
B--||---2--1--x--x-----------3--x--x----x--x--2--1-----------3--x--x-||
F#-||---2--1--x--x--5--4-----1--x--x----x--x--2--1--5--4-----1--x--x-||
C#-||---0--0--x--x--3--2--0-------------x--x--0--0--3--2--------x--x-||
Comments