Limp Bizkit - Pollution Chords & Tabs

 

Pollution Chords & Tabs

Limp Bizkit Chords & Tabs

Version: 2 Type: Tab 0 ratings
1 star 2 stars 3 stars 4 stars 5 stars
comments

Pollution Tab

   
Artist: Limp Bizkit
Title: Pollution from the album three dollar bill y'all
Tab submitted by antarctica30@hotmail.com

Wes uses standard tuning 2 steps down as so:(From low string to high)
C# F# B E G# C#
the music is written for a 7 string guitar but this works perfectly well on a normal 6-string.
For the first part just pick scrape really slow down the string.
For this bit use the edge of the pick to make a scratchy sound as you are playing:

INTRO/VERSE 1
C#---------------------------------------------------
G#---------------------------------------------------
E---------------------------------------------------
B---------------------------------------------------
F#---------------------------------------------------
C#--2--0--3b1/4--r0-0-2-0-0-2--0--3b1/4-0-0-2

EEOOOOOORRRRRRRRR!!

CHORUS play this x4 every time the word CHORUS appears
---------------------------------------------------
---------------------------------------------------
---------------------------------------------------
--4--2--5-----4-----4--2--5-----4------------------
--4--2--5-----4-----4--2--5-----4------------------
--2--0--3-0-0-2-0-0-2--0--3-0-0-2------------------

NOW PLAY THE INTRO AGAIN ON A CLEAN TONE

to criticize is critical when diggin in my concept rythams keep buildin' on a small  got you runnin from the law maybe its that low end smothered with the free-style maybe its the thought of being on the bottom of the pile style style to the skylines keep em on them sidelines chokin on my fly rhymes you need the heimlich manouver this aint no joke ya gonna choke when im singin it to ya

PRE-CHORUS
B --8-8-8-0--9------8---------
F#--8-8-8-0--9------8---------
C#--6-6-6-0--7--0-0-6-0-------
[ Tab from: http://www.guitartabs.cc/tabs/l/limp_bizkit/pollution_tab_ver_2.html ]
When do you decide? let me know when youre mine WHEN DO YOU DECIIIIIIDE 

CHORUS (you know it an if you dont its at the top)

I'll probly never understand
POOLLUUUUTTTTIOONN
You preach the noise about the words that you dont wanna hear
PPOOOOLUUUUTIION
I keep on the mic when i spill
POOOLLUUUUUUTION
You preach the noise about the words that you dont wanna hear
POOOLLLLUUUTIOOOON
I keep that grip real tight

VERSE 2 ADD SOME WAH FOR EFFECT
F#---2--0--3--0-0-2--0-0-0-2--0--3--0-0-2--
C#---2--0--3--0-0-2--0-0-0-2--0--3--0-0-2--

breaker breaker 1   9  spittin out those skills suicidal punk lemme know ya real walkin on a thin line with the stick face slime stuck with the flow runnin through ya mind so if ya crossin over lemme know ya real from the flex of ya kneck know ya got da feel im rappin like the thunder so if ya goin under make you wonder why the fuck ya see me goin' down down listen to them stereotype when they complain i cant refrain from bringin on the pain

PRE CHORUS

CHORUS 

PRE OUTRO
B -------5-4--------5-4-----
F#--7-6--------7-6----------
C#--0-0--0-0---0-0--0-0-----

when they tell me to turn down the volume
          "                    the bass
          "                    that  vocal
          "                    to shut the F**CK UUUPP!!
IM GONNA BRING THAT BEAT BACK

OUTRO
B --2--1-xx---------3-x-x-x-x 2-1-----xx-3
F#--2--1-xx--5-4-xx-1-x-x-x-x-2-1-5-4-xx-1
C#-------xx--3-2-xx---x-x-x-x-----3-2-xx--

yeah im gonna bring that beat back 
YOU DRAAAAAAGG im gonna BRING THAT BEAT    BACK!!!!

END OF OUTRO
B --2-1-x-----x-2-2-x------
F#--2-1-x-5-4-x-2-1-x-0--0-
C#------x-3-2-x-----x-0--0-

WWWOOOOWWWWAAAAHHHH!

THATS ALL! LISTEN TO THE CD FOR TIMING BECAUSE THATS QUITE COMPLICATED WITH ALL THE MUTE TIMINGS
Comments