Limp Bizkit - Nookie Chords & Tabs

 

Nookie Chords & Tabs

Limp Bizkit Chords & Tabs

Version: 7 Type: Tab 0 ratings
1 star 2 stars 3 stars 4 stars 5 stars
comments

Nookie Tab

Limp Bizkit, Nookie
Rob Welsted, robwel@usa.net
Song: Nookie
Artist: Limp Bizkit
Album: Significant Other (Flip/Interscope Records)
NOTE!!! this is for 7-string guitars only. If you want the 6-string version, e-mail me. There is also a 4-string version out there.

Verse:

e------------------------------------------ Repeat
b------------------------------------------ throughout
G------------------------------------------ verse
D------------------------------------------ 
A--------10p9----------9----------9-------- 
E----9----------9h10-------9h10------------
B------------------------------------------

Bridge: (Like a chump, hey!)
[ Tab from: http://www.guitartabs.cc/tabs/l/limp_bizkit/nookie_tab_ver_7.html ]
e------------------------------------------ Repeat
b----7---7---7---7---7s8-------------------   as
G------------------------------------------ necessary
D----4---4---4---4---4s5-------------------
A------------------------------------------
E------------------------------------------
B------------------------------------------

Chorus:

e------------------------------------------
b------------------------------------------
G------------12----------------------------
D------------12----------------------------
A----7---9---10----------------------------
E----7---9---------------------------------
B----5---7---------------------------------

Breakdown: (Where Fred's voice is distorted...)

e------------------------------------------ Listen to
b------------------------------------------ CD to get
G------------------------------------------ down the
D------------------------------------------ rhythym
A------------------------------------------
E------------------------------------------
B----5---7---7---7s8s7--5(8x)--10(8x)-5--7-

Comments