Limp Bizkit - Nookie Chords & Tabs

 

Nookie Chords & Tabs

Limp Bizkit Chords & Tabs

Version: 6 Type: Tab 0 ratings
1 star 2 stars 3 stars 4 stars 5 stars
comments

Nookie Tab

Band:        Limp Bizkit
CD:          Significant Other
Song:        Nookie
Tuning:      Use Wes' standard tuning (1 and 1/2 steps down) and 
             replace the high E with a bass string tuned to F#
Tabbed by:   I k0Rn IlI@aol.com


Intro

|------------------------|
|------------------------|
|-----12h13---------13---|
|-0-1-------0-0h1p0----1-|

Verse

|--------------------------|
|--------------------------| 
|------12h13p12------------| 
|-12p0----------0-12h13p12-| 

Verse 2

|-------------------------------------|
|-------------------------------------|
|-----12-----12-----12-----12---12h13-|
|-0-0----0-0----0-0----0-0----0-------|

Chorus
[ Tab from: http://www.guitartabs.cc/tabs/l/limp_bizkit/nookie_tab_ver_6.html ]
|------------------------|
|------------------------|
|-0-1-12h13-0-0h1p0-13-1-|
|-0-1-------0-0h1p0----1-|

Breakdown

|---------------------------|
|---------------------------|
|---------------------------|
|-0-0-0-0-0-0-0-0-0-0-0-0-0-|

Breakdown 2 

|---9---9---9---9-|
|---7---7---7---7-|
|---7---7---7---7-|
|-0-7-0-7-0-7-0-7-|

Outro

|------------------------------|
|------------------------------|
|---12---12---12---12---12-----|
|-0----0----0----0----0----0-1-|

|-----------------------------------|
|-----------------------------------|
|---12---12---12---12---12----------|
|-0----0----0----0----0----0-1--0-1-|


Some of this is most likely wrong but it sounds pretty close to me. 
If you have any corrections send them to me at Ik0RnIlI@aol.com
Comments