Limp Bizkit - Nookie Chords & Tabs

 

Nookie Chords & Tabs

Limp Bizkit Chords & Tabs

Version: 2 Type: Tab 0 ratings
1 star 2 stars 3 stars 4 stars 5 stars
comments

Nookie Tab

   
SONG: Nookie
BAND: Limp Bizkit
Album: Incignificant Other
Transcribed by: Nick "Head Wannabe" Di Claudio
6 string normaly tuned

Intro

e||---------------------||
B||---------------------||
G||---------------------||
D||---------5------5-4--||
A||---------------------||
E||--3h2p3-----2h3------||

Chorus
"i give it up for the nookie HEY the nookie HEY..."
e||-----------------------||
B||-----------------------||  use alot of feeback here so the bend
G||--------4^---------4^--||  sounds abit like a harmonic.
D||--22-4--5^--2-2--4-5^--||
A||--22-4------2-2--4-----||
E||--00-2------0-0--2-----||

Verse

e||-----------------------------------------||
B||-----------------------------------------||
G||-----------------------------------------||
D||-----4-5-4-----4-5-6------4-5p4-----4h6--||
A||-----------------------------------------||
E||--0-2------0-2--------0-2-------0-2------||
[ Tab from: http://www.guitartabs.cc/tabs/l/limp_bizkit/nookie_tab_ver_2.html ]
Fill 1
"Hey like a chump hey, like a chump hey..,"
e||-------------||
B||-------------||
G||-------------||
D||--5-4-2-6h7--||
A||--------x-x--||
E||--------x-x--||

Fill 2
(where fred uses some freaky pedal and makes his voice sound funny)
e||-------------------------------------------------||
B||-------------------------------------------------||
G||-------------------------------------------------||
D||-------------------------------------------------||
A||-------------------------------------------------||
E||-0h2-0h2-0h2---0-0-0-0-0-0-0-0--5-5-5-5-5-5h6-5--||

other part there
e||-------------3333-----------------------------------|| < lighly
B||----------------------------------------------------||   played
G||----------------------------------------------------||
D||-0-2-0-2-0-2-xxxx-0-0-0-0-0-0-0-0--5-5-5-5-5-5-5-5--||
A||-0-2-0-2-0-2-xxxx-0-0-0-0-0-0-0-0--5-5-5-5-5-5-5-5--||
E||-0-2-0-2-0-2-xxxx-0-0-0-0-0-0-0-0--5-5-5-5-5-5-5-5--||

thats all,heres the legend...
               p= pull off
               h= hammer
               x= notless picking
hope you enjoyed,took me awhile,havent got the new cd yet.
Comments