Limp Bizkit - Nookie Chords & Tabs

 

Nookie Chords & Tabs

Limp Bizkit Chords & Tabs

Version: 10 Type: Tab 0 ratings
1 star 2 stars 3 stars 4 stars 5 stars
comments

Nookie Tab

#-----------------------------PLEASE NOTE-------------------------------------#
#This OLGA file is the author's own work and represents their interpretation  #
#of the song. You may only use this file for private study, scholarship, or   #
#research. Remember to view this file in Courier, or some other monospaced    #
#font. See http://www.olga.net/faq/ for more information.                     #
#-----------------------------------------------------------------------------#

Date: Sun, 6 Aug 2000 19:52:59 -0400
From: "Justintime4lunch Bailey" 
Subject: l/limp_bizkit/nookie.crd

Nookie
Limp Bizkit
Tabbed by Justin Bailey undertaker336@hotmail.com

Intro
E----------------------------------
B----------------------------------
G----------------------------------
D-------x6-------6-------x6-------6
A-------x6-------6-------x6-------6
D--3-5--x6--3-5--6--3-5--x6--3-5--6
[ Tab from: http://www.guitartabs.cc/tabs/l/limp_bizkit/nookie_tab_ver_10.html ]
Chorus
E----------------------------------
B----------------------------------
G----------------------------------
D--3-5--x6--3-5--6--3-5--x6--3-5--6
A--3-5--x6--3-5--6--3-5--x6--3-5--6
D--3-5--x6--3-5--6--3-5--x6--3-5--6

Pre Chorus
E------------------------------------
B------------------------------------
G------------------------------------
D------------------------------------
A--10-11--10-10-11---10-11--10-10-11-
D------------------------------------

E------------------------------------
B------------------------------------
G------------------------------------ (Like a chump hey...)
D--12-12-1414-12-12-1414-12-12-1414--
A--10-10-1111-10-10-1111-10-10-1111--
D------------------------------------

Pre Rock
D-------------------------------------
A------------------------------------- repaet 5 times
D--3-5-----3-5------3-5---333338888777

Rock
D-555555-888888-101010101010-6666-5555--3-
A-555555-888888-101010101010-6666-5555--3-repeat 3 times.on 3rd time end
D-555555-888888-101010101010-6666-5555--3- with 12121212-15151515

Intro
Chorus
PreChorus
Chorus
PreChorus
Chorus
PreRock
Rock
Chorus
Comments