Limp Bizkit - Nookie Chords & Tabs

 

Nookie Chords & Tabs

Limp Bizkit Chords & Tabs

Version: 1 Type: Bass Tab 0 ratings
1 star 2 stars 3 stars 4 stars 5 stars
comments

Nookie Bass Tab

   
Artist: Limp Bizkit
Album: Significant Other
Song: Nookie
Tabbed by:javierortego@hotmail.com
Original Author: Carl Kerekes

To play this song, you´ve got to listen carefully to
the timings, ´cause, like most LB songs, it´s got
a lot of groove.

Standard Tuning (low to high E A D G)


Intro (Rest four measures and come in at 00:10)

G|---------------------|
D|---------------------|
A|---------------------|
E|-0-2-X-5-2-0-2-X-X-2-|

1st Verse  x8

G|-11--------11--------|
D|---10--------11------|
A|-----9--7/9----9-----|
E|---------------------|

Rest four measures.

2nd Verse X8

G|-11--------11--------|
D|---10--------11------|
A|-----9--7/9----9-----|
E|---------------------|

1st Chorus

G|---------------------|
D|---------------------|
A|---------------------|
E|-0-2-X-5-2-0-2-X-X-2-|

3rd Verse x8

G|-11--------11--------|
D|---10--------11------|
A|-----9--7/9----9-----|
E|---------------------|

Rest four measures.

2nd Chorus x8

G|---------------------|
D|---------------------|
A|---------------------|
E|-0-2-X-5-2-0-2-X-X-2-|

Bridge  x4
[ Tab from: http://www.guitartabs.cc/tabs/l/limp_bizkit/nookie_btab.html ]
G|--------------|----------------|----------------|
D|--------------|----------------|----------------|
A|--------------|----------------|----------------|
E|-0-2----------|-0-2------------|-0-2------------|

G|---------------------------------|
D|---------------------------------|
A|---------------------------------|
E|-0--0-0--0-0-0-0--5-5-5-5/3-3-3-3|


Pre-chorus  X3

G|-------------------------------------------------|
D|--4-4-4-4-4--4-4-4-4-----------------------------|
A|-------------------------------------------------|
E|-2---2-2-2----------5-5--5-5--5--5-5-5-5-5-5-5-5-|

G|------------------------------------------------|
D|------------------------------------------------|
A|------------------------------------------------|
E|-7-7-7-7-7--7-7-7-7-7-7--7--7-7-9-9-9-9-9-9-9-9-|

G|--------------------|
D|--------------------|
A|--------------------|
E|-12--12-12-12-12--12|

3rd Chorus  X8

G|---------------------|
D|---------------------|
A|---------------------|
E|-0-2-X-5-2-0-2-X-X-2-|

Outro

G|----------------|----------------|
D|----------------|----------------|
A|----------------|----------------|
E|-0-2------------|-0-2------------|

G|----------------|----------------|
D|-2-4------------|-2-4------------|
A|----------------|----------------| play this two
E|----------------|----------------| measures five times.

Comments