Limp Bizkit - Nobody Loves Me Chords & Tabs

 

Nobody Loves Me Chords & Tabs

Limp Bizkit Chords & Tabs

Version: 1 Type: Tab 0 ratings
1 star 2 stars 3 stars 4 stars 5 stars
comments

Nobody Loves Me Tab

 
-------------------------------------------------------------------------
	
	Song: Nobody Loves Me
	Band: Limp Bizkit
	Album: Three Dollar Bill Y'All $
	Transcribed by: Johan Braathen 

 -------------------------------------------------------------------------
	
	Tuning: 1 1/2 step down


|------------------------------------------------|
|------------------------------------------------|
|------------------------------------------------|
|------------------------------------------------|
|-------9-8---8-8--9-8--8-8---2--(2)-------------|
|-------7-6---6-6--7-6--6-6---0--(0)-------------|
                           

	Chorus: (mess around with these notes)
|------------------------------------------------|
|------------------------------------------------|
|------------------------------------------------|
|------------------------------------------------|
|--10^10^10^-------------------------------------|
|-------------------0----------------------------|

[ Tab from: http://www.guitartabs.cc/tabs/l/limp_bizkit/nobody_loves_me_tab.html ]
	Verse: (play each note  3 or 4 times, listen to da album)
|------------------------------------------------|
|------------------------------------------------|
|------------------------------------------------|
|------------------------------------------------|
|------------------------------------------------|
|--2--3--2--3--5---2--3--2----7^-----------------|
 p.m--------------------------I

	
	Cool riff:
|------------------------------------------------|
|------------------------------------------------|
|------------------------------------------------|
|------------------------------------------------|
|--x-x-x-3-3-3-4-3-------------------------------|
|--x-x-x-3-3-3-4-3-------------------------------|


	Good God kind of riff:
|-----------18--------------18------------18-----|
|------------------------------------------------|
|------------------------------------------------|
|------------------------------------------------|
|------------------------------------------------|
|--0-0------------0-0-0---------0-0--------------|


www.geocities.com/SunsetStrip/Towers/1875/

Thatīs all for now C U




Comments