Limp Bizkit - Nobody Like You Chords & Tabs

 

Nobody Like You Chords & Tabs

Limp Bizkit Chords & Tabs

Version: 1 Type: Tab 0 ratings
1 star 2 stars 3 stars 4 stars 5 stars
comments

Nobody Like You Tab

   
Band: Limp Bizkit
   Album: Signicant Other
   Song: "Nobody Like You"
   featuring Jonathan Davis from KoRn and Scott Weiland from 
   Stone Temple Pilots.

   Tabbed by: Bryan Yeager (GtarMan85@aol.com). Distribute Freely!

   Tuned to Drop Db (Db,Ab,Db,Gb,Bb,Eb)

   This is how i figured out the tuning: I figure that KoRn is tuned one 
   step lower than Wes Borland on an Ibanez 7 String. To play KoRn on a 
   6 string, you have to tune down a whole step down (D,G,C,F,a,D). So 
   if Wes is tuned up one step higher, That means it would be a 1/2 step 
   higher on a 6 string. Besides, it was too high in Drop D Tuning.

   *=Palm Mute
   /\/\/\/\=Tremelo
   ^1/4=bend up 1/4

   I suggest you have the CD or have it taped to play this because you'll
   understand it better.

   Riff 1:

   Eb|------------------------------------------------------------------|
   Bb|------------------------------------------------------------------|
   Gb|------14--------14------------14----------------------------------|
   Db|-0-0------0--0------0--0-0-0------0--0-0--4^1/4-/\/\/\------------|
   Ab|-0-0------0--0------0--0-0-0------0--0-0--------------------------|
   Db|-0-0------0--0------0--0-0-0------0--0-0--------------------------|

   I skipped the bass part cause it was muffled out by John Otto and 
   DJ Lethal

   Riff 2:
[ Tab from: http://www.guitartabs.cc/tabs/l/limp_bizkit/nobody_like_you_tab.html ]
   Eb|------------------------------------------------------------------|
   Bb|------------------------------------------------------------------|
   Gb|------------------------------------------------------------------|
   Db|-0--0-0----0--0-0----6--5--3-2------------------------------------|
   Ab|-0--0-0----0--0-0----6--5--3-2------------------------------------|
   Db|-0--0-0----0--0-0----6--5--3-2------------------------------------|
   x---------x---mute after stroking chord

   Riff 3:

   Eb|------------------------------------------------------------------|
   Bb|------------------------------------------------------------------|
   Gb|------------------------------------------------------------------|
   Db|-0--0-0----0--0-0----6--------------------------------------------|
   Ab|-0--0-0----0--0-0----6--------------------------------------------|
   Db|-0--0-0----0--0-0----6--------------------------------------------|
   x---------x---mute after stroking chord

   Riff 4:

   Eb|------------------------------------------------------------------|
   Bb|------------------------------------------------------------------|
   Gb|------------------------------------------------------------------|
   Db|-3-0-0-0---0----3-0-0-0---0---------------------------------------|
   Ab|---------3--------------3-----------------------------------------|
   Db|------------------------------------------------------------------|
   * * * * * * * * * * * *
   Riff 5:

   This is during the real flipped out part with everyone singin' at 
   once. You can palm mute it if you want but it really doesn't matter.
   note that the first group is slower than the second.

   Eb|------------------------------------------------------------------|
   Bb|------------------------------------------------------------------|
   Gb|------------------------------------------------------------------|
   Db|-3-0-0-0---0----3-0-0-0---0---------------------------------------|
   Ab|---------3--------------3-----------------------------------------|
   Db|------------------------------------------------------------------|

   Riff 1: 6xs
   Riff 2: 3xs
   Riff 3: 1x
   Riff 2: 3xs
   Riff 3: 1x
   Riff 4: 12xs
   Riff 5: 12xs
   Riff 2: 3xs
   Riff 3: 1x
   Riff 1: 6xs
Comments