Limp Bizkit - No Sex Chords & Tabs

 

No Sex Chords & Tabs

Limp Bizkit Chords & Tabs

Version: 8 Type: Tab 0 ratings
1 star 2 stars 3 stars 4 stars 5 stars
comments

No Sex Tab

limp bizkit, no sex.
Tabbed by nick, DeadManINC1.
  
limp bizkit no sex 
the real tabs
intro/vers 
-------------------:
-------------------:
---7---7-----5-----:
-------------------:
-5--5------3---3---:
-----6---0-------4-:
choures
----------------------------------------------------:
----------------------------------------------------:
-9-9-9-9-9-9-9-9-------------9-9-9-9-9-9-9-9-9-7-8-9:
---------------------5-----4------------------------:
-7-7-7-7-7-7-7-7-------------7-7-7-7-7-7-7-7-7-5-6-7:
-------8-8-8-8-8---3---3-2---------8-8-8-8-8-8------:

thats about it e-mail me if you have any questions 

:: Ultimate Guitar Archive :: 
http://www.ultimate-guitar.com



[ Tab from: http://www.guitartabs.cc/tabs/l/limp_bizkit/no_sex_tab_ver_8.html ]
Comments