Limp Bizkit - No Sex Chords & Tabs

 

No Sex Chords & Tabs

Limp Bizkit Chords & Tabs

Version: 5 Type: Tab 0 ratings
1 star 2 stars 3 stars 4 stars 5 stars
comments

No Sex Tab

Band: Limp Bizkit
Song: No Sex
Album: Significant Other
******************************************************************************
*******************

1. Transcribed by Conhoto@aol.com(Ben Meixsell) 

          This song is so damn correct its unbelievable! It is arranged
for 
six string
      guitars, and I know you love that. But I recommend you tune it
to:



 (Intro/Verse riff) 0:00,1:15
||------------------------------------||    With a chorus & Digital 
||------------------------------------||    Delay pedals.
||----7-------9--------5--------------||
||------------------------------------||
||-5-----5----------3-----3-----------||
||---------6----------------4---------||



 (Chorus/Outro riff1) 0:54,1:56,3:14
||------------------------------------||  With Delay off & Chorus on
||------------------------------------||  and with Distortion.
||-9-9--x---5-5--x--------------------||
||-9----x---5----x---5-5---x---4-4----||
||-7----x---3----x---5-----x---4------||
||-------------------3-----x---2------||
 

 (Chourus riff2)
 ||-------------------------------------||
 ||-------------------------------------||
 ||-9-9-x---5-5---7--7-x-8--------------||
 ||-9---x---5----------x----------------||
 ||-7---x---3-----5--5-x-6--------------||
 ||-------------------------------------||
[ Tab from: http://www.guitartabs.cc/tabs/l/limp_bizkit/no_sex_tab_ver_5.html ]
  2:16,
||----------------|      |----------------------------||
||----------------|      |----------------------------||  b=Bend  
||-9-9-9-9--5-5-5-|Play  |-7-7-7-7-8-8-8-9b-----------||  ~=Vibrato
||-9-9-9-9--5-5-5-| x3   |----------------------------||
||-7-7-7-7--3-3-3-|Then: |-5-5-5-5-6-6-6-7b-----7~~~--||
||-0-0-0-0--0-0-0-|      |----------------------------||


 (Interlude riff) 2:35
||---------------5-----------------------||
||-----6-5--7-8---------3--------------||
||---7----------------5------------------||
||---------------------------------------||
||-5----------------3--------------------||
||---------------------------------------||
  "You couldn't respect yourself..."

 (Bridge riff) Palm mute all 2:55
||-------------------------------------||
||-------------------------------------||
||-9-9-9--7-7-7-8-----------------||
||-------------------------------------||
||-7-7-7--5-5-5-6-----------------||
||-------------------------------------||
"I realized that I'm worth more than that..."


 (Outro riff) Just play the chourus ove and thats it! Oh yeah buy this
CD!!!! 
It is the best one out there! If you have requests or comments E-mail
me at 
Conhoto@aolcom. Give me props if you want take this tab and put it on
another 
site, thanx.



******************************************************************************
*******************
Comments