Limp Bizkit - My Way Chords & Tabs

 

My Way Chords & Tabs

Limp Bizkit Chords & Tabs

Version: 1 Type: Tab 0 ratings
1 star 2 stars 3 stars 4 stars 5 stars
comments

My Way Tab

   
Song: My Way
Band: Limp Bizkit
From: Chocolate Starfish & The Hotdog Flavored Water
Tab:  Adam Urbz
Mail: pickboy87@cs.com
Tune: Dropped D; Transposed Down One Half Step

   Main Chord Progression:
Eb|--------7-----4-----|
Bb|--6----(7)---(4)----|
Gb|*-6-----7-----3----*|
Db|*-6-----4-----1----*|
Ab|--4----(4)---(1)----|
Db|--------------------|

   Chorus:(Gtr. 2 Plays Chords Below)
    C#5      A5           C#5       A5
Eb|----------------------------------------| 
Bb|----------------------------------------|
Gb|*-10------11--13--------10-------11--6-*|
Db|*--x-------x---x---------x--------x--x-*|
Ab|---8-------9--11---------8--------9--4--|
Db|----------------------------------------|
[ Tab from: http://www.guitartabs.cc/tabs/l/limp_bizkit/my_way_tab.html ]
   Post-Chorus:
Eb|------------------------------------------|
Bb|------------------------------------------|
Gb|*-6-6--x--6-6--6----6------9-9----9----9-*|
Db|*-6-6--x--6-6--6----6------9-9----9----9-*|
Ab|--4-4--x--4-4--4--0-4-0----7-7--0-7-0--7--|
Db|------------------------------------------|

   Breake:(With slight delay) 
Eb|-------------------------------------|
Bb|-------0----------------3------------|
Gb|*----2----------0-----0--------------|
Db|*-------------0-------------------7--|
Ab|--0-----------------3----------5-----|
Db|-----------3----------------5--------|

Eb|-------0----------------3------------|
Bb|----------------1-----3--------------|
Gb|-----2--------0-------------------7-*|
Db|-------------------------------7----*|
Ab|--0-----------------3----------------|
Db|-----------3----------------5--------|

Well,that's it! It's really not that hard to play.
This probably the only tab for this song that has
been posted online so far,so enjoy it! Any questions,
comments, or suggestions can be sent to me via e-mail.
Comments