Limp Bizkit - My Way Solo Chords & Tabs

 

My Way Solo Chords & Tabs

Limp Bizkit Chords & Tabs

Version: 2 Type: Tab 1 rating
1 star 2 stars 3 stars 4 stars 5 stars
comments

My Way Solo Tab

   
#----------------------------------PLEASE NOTE--------------------------------#
#This file is the author's own work and represents their interpretation of the#
#song. You may only use this file for private study, scholarship, or research.#
#-----------------------------------------------------------------------------#
#-- File created with Instab - http://www.pconline.com/~smcarey/instab.html --#
#-----------------------------------------------------------------------------#

Author/Artist: Limp Bizkit
Title: My Way (solo break)
Album: the chocolat starfish...................
Transcribed by: ?
Email: http://www.limpbizkit.com/

http://www.limpbizkit.com/

-||---------|---------|---------|---------|---------|---------|-----------|---
-||---------|---------|---------|---------|---------|---------|-----------|---
-||---------|---------|-----6-6-|---------|-----8-8-|---------|-----11-11-|---
-||-----8-8-|-----4-4-|---4-----|-----6-6-|---6-----|-----9-9-|---9-------|---
-||---6-----|---2-----|-2-------|---4-----|-4-------|---7-----|-7---------|---
-||-4-------|-0-------|---------|-2-------|---------|-5-------|-----------|---
   Play it with some reverb! Standard Tuning (e,b,g,d,a,e)                    
[ Tab from: http://www.guitartabs.cc/tabs/l/limp_bizkit/my_way_solo_tab_ver_2.html ]
-----------||-----------------------------------------------------------------
-----------||-----------------------------------------------------------------
-----------||-----------------------------------------------------------------
-----11-11-||-----------------------------------------------------------------
---9-------||-----------------------------------------------------------------
-7---------||-----------------------------------------------------------------
                                                                              

-||---------|---------|---------|---------|---------|---------|-----------|---
-||---------|---------|---------|---------|---------|---------|-----------|---
-||---------|---------|-----6-6-|---------|-----8-8-|---------|-----11-11-|---
-||-----8-8-|-----4-4-|---4-----|-----6-6-|---6-----|-----9-9-|---9-------|---
-||---6-----|---2-----|-2-------|---4-----|-4-------|---7-----|-7---------|---
-||-6-------|-2-------|---------|-4-------|---------|-7-------|-----------|---
  Same solo break only for Dropped d (e,b,g,d,a,d)                            

-----------||-----------------------------------------------------------------
-----------||-----------------------------------------------------------------
-----------||-----------------------------------------------------------------
-----11-11-||-----------------------------------------------------------------
---9-------||-----------------------------------------------------------------
-9---------||-----------------------------------------------------------------
                                                                              

Comments