Limp Bizkit - My Way Chords & Tabs

 

My Way Chords & Tabs

Limp Bizkit Chords & Tabs

Version: 5 Type: Bass Tab 0 ratings
1 star 2 stars 3 stars 4 stars 5 stars
comments

My Way Bass Tab

Artist: Limp Bizkit
Album: Chocolate starfish and the hot dog flavoured water
Track: My way


This is about right, it's a really interesting song to play and isn't too complicated!

Intro:

G  --------------|
D  --------------|
A  -----12~------|
E  --9~-----12~--|
C# --------------|


Main Riff:

G  ------------16--------------------14----------|
D  ---------14--------14----------14--------14---|
A  ------12--------14----------12--------14------|
E  --9----------12---------9----------12---------|
C# ----------------------------------------------|


Chorus:
[ Tab from: http://www.guitartabs.cc/tabs/l/limp_bizkit/my_way_btab_ver_5.html ]
G  -------------------------------------------------------------------|
D  -------------------------------------------------------------------|
A  -------------------------------------------------------------------|
E  -9-9-9-9-9-9h12-12-12-12-12---9-9-9-9-9-9h12-12-12-12h14-14p12-12--|
C# -------------------------------------------------------------------|


Chorus 2

G  --------------------------------------------------------|
D  --------------------------------------------------------|
A  --------------------------------------------------------|
E  --------------------------------------------------------|
C# --0-0-x-x-0-0-x-x-0-3-3-0-3-0-3--0-3--------------------|


Bridge (x1)
G  ---------------|
D  ---------------|
A  --------7------|
E  --9--5-----7---|
C# ---------------|


Interlude

G  --------------------4----------------------------------------------|
D  ------6------2----4--------4-------11-----7---14----14-----14------|
A  ----6------2----2--------4-------11-----7--------14-----14----14---|
E  --4------0-------------2-------9------5----------------------------|
C# -------------------------------------------------------------------|

Tabbed by Pete Earnshaw
Comments