Limp Bizkit - My Way Chords & Tabs

 

My Way Chords & Tabs

Limp Bizkit Chords & Tabs

Version: 4 Type: Bass Tab 0 ratings
1 star 2 stars 3 stars 4 stars 5 stars
comments

My Way Bass Tab

   
Song: My Way
Band: Limp Bizkit
Album: Chocolate Starfish & The Hotdog Flavoured Water
Tabbed by: Drew Jamieson creepin@metallica.com 

Tuning: C#, F#, B, E (Low to High)

1)
E----------------19---------12----------------17---------------
B------------17---------12----------------17---------12b13r12--
F#-------15---------10----------------15---------10------------
C#-0----------------------------0------------------------------
Verse
[ Tab from: http://www.guitartabs.cc/tabs/l/limp_bizkit/my_way_btab_ver_4.html ]
2)
E-------------------------------------
B-------------------------------------
F#------------------------------------
C#-0-0-0-0-0-0-0-0-3-3-3-3-3-3-3-3----
"This time I'm a let it all come out"
"Some day you'll see things my way"
Same notes altered rhythm slightly

3)
E--------------------------4--------------7-----------
B-----------------------4--------5-----7--------7-----
F#--/7-----/10-------2--------5-----5--------7--------
C#------8-------10---------3--------------5-----------

corrections welcome
Comments