Limp Bizkit - My Generation Chords & Tabs

 

My Generation Chords & Tabs

Limp Bizkit Chords & Tabs

Version: 6 Type: Tab 0 ratings
1 star 2 stars 3 stars 4 stars 5 stars
comments

My Generation Tab

Limp Bizkit - My Generation
Tabbed by: Sean Stinson

There have been plenty of requests for this
song, which has a shockingly good riff (for
a Limp Bizkit song). I'm 95% sure it's right.

Dropped D Tuning: (DADGBE)

INTRO/CHORUS: Repeat 4 times for intro,
and 1 1/2 for the chorus (omit the second 
part).
|----------------------------------------------|
|----------------------------------------------|
|----------------------------------------------|        
|-0-0--0-0--333-0-3-0---0-0--0-0--0-3-0-3-0-3--|
|-0-0--0-0--333-0-3-0---0-0--0-0--0-3-0-3-0-3--|
|-0-0--0-0--333-0-3-0---0-0--0-0--0-3-0-3-0-3--|
[ Tab from: http://www.guitartabs.cc/tabs/l/limp_bizkit/my_generation_tab_ver_6.html ]
Verse: It sounds perfect on the neck
pickup.
|----------------------------|
|----------------------------|
|----------------------------|
|-----15-14-----15-14---15---|
|----------------------------|
|-0-0-------0-0-------0------|

PRECHORUS: 2x.
|------------------|
|------------------|
|------------------|
|--3-3-3--3-3-3-3--|
|--3-3-3--3-3-3-3--|
|--3-3-3--3-3-3-3--|

BRIDGE: Most of it is bass, but here is the
badass riff:
|------------------------------------------------|
|------------------------------------------------|
|------------------------------2|----------------|
|-0-0---------0-3-0-3-0-3-0-1----0-3-0-3-0-1-----|
|-0-0-----3h5-0-3-0-3-0-3-0-1----0-3-0-3-0-1-----|
|-0-0-3h5-----0-3-0-3-0-3-0-1----0-3-0-3-0-1-----|
 P.M.....     ...............    .........

ENDING:
|-----------------------------|
|-----------------------------|
|-----------------------------|
|-3-3-0-3-0-3--3-3-0-3-0-3--0-|
|-3-3-0-3-0-3--3-3-0-3-0-3--0-|
|-3-3-0-3-0-3--3-3-0-3-0-3--0-|

-------

That's it. Pretty easy.

Ta,
Sean Stinson
Comments