Limp Bizkit - My Generation Chords & Tabs

 

My Generation Chords & Tabs

Limp Bizkit Chords & Tabs

Version: 3 Type: Tab 0 ratings
1 star 2 stars 3 stars 4 stars 5 stars
comments

My Generation Tab

Date: Mon, 16 Oct 2000 18:42:09 -0400
From: Malinda 
Subject: l/limp_bizkit/my_generation.tab

Group: Limp Bizkit
Album: Chocolate Starfish...
Song: My Generation
Tabbed By: Malinda((Malinda@batelco.com.bh)
Normal tune(this isn,t the original pitch,its played 1 1/2 steps lower)   

While Fred's talking Wes scrapes up the fret board with delay

Intro:
(distortion)
:--\\\\--xxxxx
:--\\\\--xxxxx
:--\\\\--xxxxx

Chorus:
:--22--22--5----5---5
:--22--22--5----5---5
:--00--00--3--0-3-0-3
[ Tab from: http://www.guitartabs.cc/tabs/l/limp_bizkit/my_generation_tab_ver_3.html ]
Verse:
(the harmonic is right over the 4th fret bar not in the middle of the fret)
:--------------------------------
:--00---00---00---

Bridge:
   'so go ahead and talk...'
:--5-5-5--5-55--
:--5-5-5--5-55-- x3 
:--3-3-3--3-33--

Pre-Interlude:
:--6-66-5-5-55--
:--6-66-5-5-55--
:--4-44-3-3-33--

Interlude:
(first part is clean and muted, then when DJ Leathal kicks in is loud and
distorted)
:-------------------------------------------------------3--
:----7-5-2-5h7---------------------7-5-2-5h7------------3--
:--0----------0h5-3-0-3-0-1h3p1--0----------0h5-3-0-3-0-1--

Outro:
:--7-5-2-5-2-5-7-5-2-5-2-5-2-PM--
:--7-5-2-5-2-5-7-5-2-5-2-5-2-PM--
:--5-3-0-3-0-3-5-3-0-3-0-3-0-PM--

Comments