Limp Bizkit - My Generation Chords & Tabs

 

My Generation Chords & Tabs

Limp Bizkit Chords & Tabs

Version: 10 Type: Tab 0 ratings
1 star 2 stars 3 stars 4 stars 5 stars
comments

My Generation Tab

   
Song - My Generation									
Arist - Limp Bizkit
Tabbed by - Steel Picker

Hey man I laughed at the other tabs for this song, 
none of them sound anything like the real song. 
I got the real McCoy right here YA HEARD! 

Tuning - Dropped D (E B G D A D)
Key...........( )=Harmonics...x=Palm Mute 

[ Tab from: http://www.guitartabs.cc/tabs/l/limp_bizkit/my_generation_tab_ver_10.html ]
	Intro/Chorus                                                                                    Verse (repeat)
E------------------------------------------------------------------------------|-----------------------------
B------------------------------------------------------------------------------|-----------------------------
G------------------------------------------------------------------------------|-----------------------------
D--------------------------------3-0-2-0-----------------------------3-0-2-0---|-----------------------------
A--------------------------------3-0-2-0-----------------------------3-0-2-0---|--------9-9-----9-9------9---
D------0-0---18---0-0---18---3-0-2-0---0-0---18---0-0---18---3-0-2-0-----------|---x-x------x-x-----x-x------


E------------------------------------|--------------------------|                                                             B-----------------------------------------|--------------------------|
G------------------------------------|--------------------------|
D---3-3----3-3-3---3-3---3-3-3-(3)---|---3--3--2--2-1-1---------|                                                                      A---3-3----3-3-3---3-3---3-3-3-(3)---|---3--3--2--2-1---1--|
D---3-3----3-3-3---3-3---3-3-3-(3)---|---3--3--2--2-1---1-------|
						
That's it. The bridge is kind of scetchy and I really got the basic 
idea of what it is but not enough info on how exactly to play it. 
I'll figure it out and send it in soon. Peace!
Comments