Limp Bizkit - My Generation Chords & Tabs

 

My Generation Chords & Tabs

Limp Bizkit Chords & Tabs

Version: 2 Type: Bass Tab 0 ratings
1 star 2 stars 3 stars 4 stars 5 stars
comments

My Generation Bass Tab

   
Song: My Generation
Band: Limp Bizkit
Album: Chocolate Starfish & The Hotdog Flavoured Water
Tabbed by: Drew Jamieson creepin@metallica.com 

C#, F#, B, E (Low to High)

1)
E-------------------------------
B-------------------------------
F#------------------------------
C#-0-3-0--0-3-0--3-0-0-3-0-3----
Intro Riff

2)
E--------------
B--------------
F#-------------
C#--0--0-------
Verse
[ Tab from: http://www.guitartabs.cc/tabs/l/limp_bizkit/my_generation_btab_ver_2.html ]
3)
E------------------
B------------------
F#-----------------
C#-3-3-3--3-3-3----
"So go ahead and talk shit"

4)
E-----------------
B-----------------
F#----------------
C#--3-3--2-2------

5)
E----------
B----------
F#-7--5-3--
C#---------
"Who gets the blame?"

6)
E----------------------------------
B----------------------------------
F#-----7---5h7-------7-5-----------
C#-0-0---0-----0-0-0-----(3)--1----
Final Thrash Riff 
The (3) isn't played every time 

corrections welcome
Comments