Limp Bizkit - My Generation Chords & Tabs

 

My Generation Chords & Tabs

Limp Bizkit Chords & Tabs

Version: 1 Type: Bass Tab 0 ratings
1 star 2 stars 3 stars 4 stars 5 stars
comments

My Generation Bass Tab

Artist: Limp Bizkit
Song: My Generation
Album: chocolate starfish and the hot dog flavored water

A tab by Tic Tac
@ = tic_tac_84@hotmail.com


Comments:

Have updated this tab!



_________________________________________

Vers:
G |---------------------------||----------------------------|
D |---------------------------||----------------------------|
A |---------------------------||----------------------------|
E |--22-22-4-4-5p3------------||--2p0-2p0-4-4-4h6------------|  (x4)

Chorus:
G |-----------------------------|
D |-----------------------------|
A |--44-44---------44-44--------|
E |---------3-------------3-----| (x4)

end chorus
G |-----------------||--------------|
D |-----------------||--------------|
A |--4-4-0p4/7------||--4-4/7-------|
E |-----------------||--------------|  (x2)
[ Tab from: http://www.guitartabs.cc/tabs/l/limp_bizkit/my_generation_btab.html ]
Vers            (x1 plus the first half)
Chorus         (x4)
End Chorus  (First Half three times, then second half one time)
Vers           (x3)

Begin of the Interlude:
G |-------------------
D |-------------------
A |--------1:--3:------
E |--1:--3:------------

G |--------------------------------------------
D |----------------------------------------2---
A |--------2h3-33333-2-1--------2h3-33333-2----
E |--22222----------------22222----------------

End Chorus   (x2)
Vers             (x3)

Outro
G |--------------------------------
D |--------------------------------
A |--22-0-33-2-0---33-0-44-2-1h2---
E |--------------------------------

_____________________________

Symbols:

2:     let the note ring
~2    vibrate the note
‰3    vibrate the note up and down
2/~  vibrate the note when pulling it up or down
\/     pull it up or down
3h4  hammer on from note 3 too 4
5p4  pull off from note 5 too 4

Comments