Limp Bizkit - Mission Impossible Chords & Tabs

 

Mission Impossible Chords & Tabs

Limp Bizkit Chords & Tabs

Version: 3 Type: Tab 4 ratings
1 star 2 stars 3 stars 4 stars 5 stars
comments

Mission Impossible Tab

Limp Bizkit MI2

This is correct 100%.  I’m tired of seeing 
horrible tabs that are completely wrong and it 
makes me mad.  I got this song out of my Bizkit Book of Songs 
and converted it to tabs.

(regular tuning)
h = hit hard
~ = hold

Intro/outro
e|----------------------------------------------------------------|  
b|----------------------------------------------------------------|
g|----------------------------------------------------------------|
d|-------------2-42----------------------------2-42---------------|
a|--6--6--6--6------6--6--6--6-4-5-6--6--6--6------6--6--6--6-4-5-|
e|----------------------------------------------------------------|
[ Tab from: http://www.guitartabs.cc/tabs/l/limp_bizkit/mission_impossible_tab_ver_3.html ]
Hard riff
e|-----------------------|
b|-----------------------|
g|-----------------------|
d|-4--4--7-9--4--4--2-3--|
a|-4--4--7-9--4--4--2-3--|
e|-2--2--5-7--2--2--0-1--|

This is the twinkle part
e|-15--------15--------15--------------|
b|---17--------17--------17------------|
g|------16~------15~-------14~---12h14-|
d|-------------------------------------|
a|-------------------------------------|
e|-------------------------------------|

Order-
Intro 2x
Riff 4x
Twinkly	
Riff 2x
Outro 3x

This is totally correct. Have fun. 
                                                 2              3  
If the riff is too hard for newbs because of the 2, then to the 3, 
                                                 0              1
then detune your guitar down a half step and play the whole thing 
up 1 fret. Its easier.         
                                       
Comments