Limp Bizkit - Mission Impossible 2 Theme Chords & Tabs

 

Mission Impossible 2 Theme Chords & Tabs

Limp Bizkit Chords & Tabs

Version: 1 Type: Tab 3 ratings
1 star 2 stars 3 stars 4 stars 5 stars
comments

Mission Impossible 2 Theme Tab

                    Theme from Mission: Impossible 2
                                                       tabbed by J. Wren


                                                                        
D#----------------------------------------------|--15----------15-------
A#----------------------------------------------|------17---------------
F#----------------------------------------------|----------16-----------
C#-----------------5--7p5-----------------------|-----------------------
G#--7--7--7--7--7----------7--7--7--7--7--5--6--|-----------------------
C#----------------------------------------------|-----------------------
                                                                        

                                                                        
D#----------15----------15------------------------------|---------------
A#--17----------17----------17--------------------------|---------------
F#------15----------14----------17--17--17--16--16--16--|---------------
C#------------------------------------------------------|---------------
G#------------------------------------------------------|---------------
C#------------------------------------------------------|--0h2--0h2-----
                                                                        
[ Tab from: http://www.guitartabs.cc/tabs/l/limp_bizkit/mission_impossible_2_theme_tab.html ]
                                                                        
D#--------------------------------------------|-------------------------
A#--------------------------------------------|-------------------------
F#--------------------------------------------|-------------------------
C#--------------------------------------------|-------------------------
G#--------------------------------------------|--0h2--0h2--0h2--0h2-----
C#--0h2--0h2--5--7--0h2--0h2--0h2--0h2--0--1--|--0h2--0h2--0h2--0h2-----
                                                                        

                                                                        
D#----------------------------------|--------------------------|--------
A#----------------------------------|--------------------------|--------
F#----------------------------------|--------------------------|--------
C#----------------------------------|--------------------------|--------
G#--5--7--0h2--0h2--0h2--0h2--0--1--|--2--2--5--7--2--2--0--1--|--7-----
C#--5--7--0h2--0h2--0h2--0h2--0--1--|--2--2--5--7--2--2--0--1--|--------
                                                                        

                                                                        
D#----------------------------------------------------------------------
A#----------------------------------------------------------------------
F#----------------------------------------------------------------------
C#--------5--7----------------------------------------------------------
G#--7--7--------7--7--7--5--6-------------------------------------------
C#----------------------------------------------------------------------
                                                                        

Comments