Limp Bizkit - Mission Impossible 2 Chords & Tabs

 

Mission Impossible 2 Chords & Tabs

Limp Bizkit Chords & Tabs

Version: 2 Type: Tab 0 ratings
1 star 2 stars 3 stars 4 stars 5 stars
comments

Mission Impossible 2 Tab

   
Limp Bizkit, Mission Impossible 2 Theme.
Tabbed by Mark Waldron.
  
------------------------------------------------------         Limp Bizkit - Take a Look Around
------------------------------------------------------

Tuning High to Low: E B G D A D 

E:------------------------------
B:------------------------------
G:-----------0-2-0--------------
D:-2-2-2-2-2-------2-2-2-2-2-0-1
A:------------------------------
D:------------------------------
[ Tab from: http://www.guitartabs.cc/tabs/l/limp_bizkit/mission_impossible_2_tab_ver_2.html ]
E:-15-12----15-12----15-12----15-12---------
B:-------12-------11-------10-------11-11-10
G:------------------------------------------
D:------------------------------------------
A:------------------------------------------
D:------------------------------------------

E:----------------------------------------
B:----------------------------------------
G:----------------------------------------
D:----------------------------------------
A:----------------------------------------
D:-0-2-0-2-0-2-0-2-5-7-0-2-0-2-0-2-0-2-0-1

E:-----------------------------------------
B:-----------------------------------------
G:-----------------------------------------
D:-2--2--2--2--2--5--7--2--2--2--2--2--0--1
A:-2--2--2--2--2--5--7--2--2--2--2--2--0--1
D:-2--2--2--2--2--5--7--2--2--2--2--2--0--1            
:: Ultimate Guitar Archive :: 
http://www.ultimate-guitar.com 

Comments