Limp Bizkit - Mission Impossible 2 Chords & Tabs

 

Mission Impossible 2 Chords & Tabs

Limp Bizkit Chords & Tabs

Version: 1 Type: Tab 0 ratings
1 star 2 stars 3 stars 4 stars 5 stars
comments

Mission Impossible 2 Tab

Limp Bizkit, Mission Impossible 2.
 Tabbed by Aman Sangha, amandip@chello.no.
  
#----------------------------------PLEASE NOTE--------------------------------#
#This file is the author's own work and represents their interpretation of the#
#song. You may only use this file for private study, scholarship, or research.#
#-----------------------------------------------------------------------------#

Artist: Limp Bizkit
Title : Mission Impossible 2
Album : MI2 Motion Picture Soundtrack
Transcribed by: Aman Sangha
Email : amandip@chello.no

I'm not a fan of Limp Bizkit actually, but I saw this 
movie and I digged the music. 
Riffs 1 and 2 are played with a chorus/echo/reverb-like effect, I'm not 
sure which - I just play it with reverb all the way up and it sounds 
great. 
These 4 riffs are played over and over, varying slightly in rythm and length.
Really cool stuff. 

So here you go!

Aman
(Oslo,Norway)
---------------


Riff 1 
------------------------------------------------------------------------------
------------------------------------------------------------------------------
------------------------------------------------------------------------------
---------------------------6--------------------------------------------------
---6--6--6--6--6--6-6-6-9-----9--6--6--6--6--6--6-6-6-------------------------
------------------------------------------------------9-10--------------------
                                                                              
[ Tab from: http://www.guitartabs.cc/tabs/l/limp_bizkit/mission_impossible_2_tab.html ]
Riff 2
---14--11--------14--11--------14--11-------14--11----------------------------
-----------11------------10------------9------------12--12-12-11-11-----------
------------------------------------------------------------------------------
------------------------------------------------------------------------------
------------------------------------------------------------------------------
------------------------------------------------------------------------------
                                                                              

Riff 3, heavy distortion
------------------------------------------------------------------------------
------------------------------------------------------------------------------
------------------------------------------------------------------------------
---7/8--7/8--7/8--7/8--11--13--7/8--7/8--7/8--7/8--6--7-----------------------
---5/6--5/6--5/6--5/6---9--11--5/6--5/6--5/6--5/6--4--5-----------------------
------------------------------------------------------------------------------
                                                                              

Riff 4, heavy distortion
------------------------------------------------------------------------------
------------------------------------------------------------------------------
------------------------------------------------------------------------------
---8-8--11-13--8-8--6-7-------------------------------------------------------
---6-6---9-11--6-6--4-5-------------------------------------------------------
------------------------------------------------------------------------------
                                                                              

Aman
 
:: Ultimate Guitar Archive :: 
http://www.ultimate-guitar.com 

 
Comments