Limp Bizkit - M I Chords & Tabs

 

M I Chords & Tabs

Limp Bizkit Chords & Tabs

Version: 1 Type: Tab 0 ratings
1 star 2 stars 3 stars 4 stars 5 stars
comments

M I Tab

   
take a look around
limp bizkit
chocolate starfish and the hotdog flavored water
tuning (C# F# E B G# C#)

clean
-----------------------------------------
-----------------------------------------
-----------------------------------------
-----------------------------------------
-------------12-14h12--------------------
-14-14-14-14----------141-4-14-14-12-13--

-17-14----17-14----17-14----17-14--------------------
-------14-------13-------12-------15-151515-14-1414--
-----------------------------------------------------
-----------------------------------------------------
-----------------------------------------------------
-----------------------------------------------------
[ Tab from: http://www.guitartabs.cc/tabs/l/limp_bizkit/m_i_tab.html ]
---------------------------------------
---------------------------------------
---------------------------------------
---------------------------------------
-----------------0-2-------------------
-2-0-2-0-2-0-2-0-----2-0-2-0-2-0-2-0-1-

------------------------------------------
------------------------------------------
-----------------2-4----------------------
---4---4---4---4-2-4---4---4---4---4-2-3--
---4---4---4---4-0-2---4---4---4---4-2-3--
-0-2-0-2-0-2-0-2-----0-2-0-2-0-2-0-2-0-1--

then this
--------------------
--------------------
--------------------
---2---2---4-4-2-3--
---4---4---4-4-2-3--
-0-2-0-2-0-2-2-0-1--

------------------
------------------
-----2-4----------
-4-4-2-4-4-4-2-3--
-4-4-0-2-4-4-2-3--
-2-2-----2-2-0-1--

-----------------------------
-----------------------------
-----------------------------
-----------------------------
----------0-2----------------
-2-2-2-2-2----2-2-2-2-2-0-1--

then the intro is played with dist.






Comments