Limp Bizkit - Life Sux Chords & Tabs

 

Life Sux Chords & Tabs

Limp Bizkit Chords & Tabs

Version: 1 Type: Tab 0 ratings
1 star 2 stars 3 stars 4 stars 5 stars
comments

Life Sux Tab

say what - life sux
this a good song! you wont fint the music anywhere
you know why? i made this up
kick ass song
TOLEY OSHUST
*- ring
\ - slide down
/ - slide up

Intro (2x)
1---------------------------------------------------------------------------------------------------
2----------10-----10---10---10---10----10----------10----10---10---10---10---10---------9---9-------
3------10-----10-------------------------------------9-----9----------------------------------9---9-
40----------------------------------------------0-----------------------------------------0--------
5---------------------------------------------------------------------------------------------------
6---------------------------------------------------------------------------------------------------

1----------------------------------------------------------
2---9---9---9---9---9-------10---10---10---10---10---10*---
3---------------------------9-----9------------------------
4------------------------0---------------------------------
5----------------------------------------------------------
6----------------------------------------------------------


Verse I (1x)
1--------------------------------------------------------------------------------------------------------
2--------------------------------------------------------------------------------------------------------
3---4---5---5---5---5---5---5---------6----7---7---7---7---7---7-----------------------------------------
4---4---5---5---5---5---5---5---------6----7---7---7---7---7---7-------6----7---7---7---7---7---7--------
5---2---3---3---3---3---3---3---------4----5---5---5---5---5---5-------6----7---7---7---7---7---7--------
6-----------------------------------------------------------------------------4----5---5---5---5---5---5-
[ Tab from: http://www.guitartabs.cc/tabs/l/limp_bizkit/life_sux_tab.html ]
1-------------------------------------------
2-------------------------------------------
3---8----9---9---9---9---9---9--------------
4---8----9---9---9---9---9---9-------7*-----
5---6----7---7---7---7---7---7-------7------
6----------------------------------------5--


Verse II (3x)
1---------------------------------------------------------------
2---------------------------------------------------------------
3-----------------------------------------------------7---7---7-
4---9---9---9------5---5---5------7---7---7-------7---7---7-----
5---9---9---9------5---5---5------7---7---7-------5---5---5-----
6---7---7---7------3---3---3------5---5---5---------------------



Verse III (4x)
1---------------------------------------------------------------
2---------------------------------------------------------------
3-----------------------------------------------------7---7---7-
4---9---9---9------5---5---5------7---7---7-------7---7---7-----
5---9---9---9------5---5---5------7---7---7-------5---5---5-----
6---7---7---7------3---3---3------5---5---5---------------------


Verse IV (5x)
1-------------------------------------------------------
2-------------------------------------------------------
3-------------------------------------------------------
411-11-11-----7---7---7----9---9---9-----5---5---5-----
511-11-11-----7---7---7----9---9---9-----5---5---5-----
6---9---9---9-----5---5---5-----7---7---7-----3---3---3-


Outro (3x)
1---------------------------------------------------------------
2---------------------------------------------------------------
3-----------------------------------------------------7---7---7-
4---9---9---9------5---5---5------7---7---7-------7---7---7-----
5---9---9---9------5---5---5------7---7---7-------5---5---5-----
6---7---7---7------3---3---3------5---5---5---------------------
Comments