Limp Bizkit - Life In The Fast Lane Chords & Tabs

 

Life In The Fast Lane Chords & Tabs

Limp Bizkit Chords & Tabs

Version: 1 Type: Tab 0 ratings
1 star 2 stars 3 stars 4 stars 5 stars
comments

Life In The Fast Lane Tab

   
Song:Livin' it up
Artist:Limp Bizkit
Album:Chocolate starfish and the hot dog flavored water
Tabed:Alex
Tunning:C# F# B E G# C#

Intro & verse: w/dealy
 ------------------------------------------------------------------------
 ---------------14-------17--14-17------------------14-------17--14-15---
 ------------------------------------------------------------------------
 ---------16--------16--------------------------16-------16--------------
 ------------------------------------------------------------------------
 ----14--------------------------------------14--------------------------

chorus:
 ---------------------------------------------------------------------------
 ---------------------------------------------------------------------------
 ---------------------------------------------------------------------------
 ----4--4------------4-4--------------4--4------------4--4---5--4--4--------
 ----4--4------------4-4--------------4--4------------4--4---5--4--4--------
 ----2--2---0--2--0--2-2----0--2--0---2--2---0--2--0--2--2---3--2--2---0----
[ Tab from: http://www.guitartabs.cc/tabs/l/limp_bizkit/life_in_the_fast_lane_tab.html ]
after 2 chorus
 ---------------------------------------------------------------
 ---------------------------------------------------------------
 ---------------------------------------------------------------
 ---4-4-4-4-4-4-4-4-4-4-4-4---9-9-9-9-9-9---7-7-7-7-7-7---------
 ---4-4-4-4-4-4-4-4-4-4-4-4---9-9-9-9-9-9---7-7-7-7-7-7---------
 ---2-2-2-2-2-2-2-2-2-2-2-2---7-7-7-7-7-7---5-5-5-5-5-5---------

 w/slight p.m. throughout
 -------------------------------------------
 -------------------------------------------
 ---------------x-----------------x---------
 ---------------x-----------------x---------
 ---------------x-----------------x--------- 
 ---0--2-2--2----------0--2-2--2------------

 --------------------------------------------------------------------
 --------------------------------------------------------------------
 ----------------x-x-x--------------------------x-x-x----------------
 ------4-4---4---x-x-x-------4-4-4-------4-4-4--x-x-x------4-4-4-----
 ------4-4---4---x-x-x-------4-4-4-------4-4-4--x-x-x------4-4-4-----
---0---2-2---2------------0--2-2-2---0---2-2-2----------0--2-2-2-----

 ----------------------------------------------------------
 ----------------------------------------------------------
 ----------------x-x-x-------------------------------------
 -------4-4--4---x-x-x------4-4-4------------4-------------
 -------4-4--4---x-x-x------4-4-4------------4-------------
 ---0---2-2--2-----------0--2-2-2--------0---2-------------

song ends with this after chorus
 -------------
 -------------
 -------------
 ------4------
 ------4------
 ------2------
Comments