Limp Bizkit - Just Like This Chords & Tabs

 

Just Like This Chords & Tabs

Limp Bizkit Chords & Tabs

Version: 6 Type: Tab 0 ratings
1 star 2 stars 3 stars 4 stars 5 stars
comments

Just Like This Tab

   
Song: Just Like This
   Band: Limp Bizkit
   Album: Significant Other
   Release Date: June 22, 1999
   Tunning: Down 1 1/2 steps (low to high: C#, F#, B, E, G#, C#)
   Transcribed by: gish070980@aol.com


   Intro #1:
   -------------------------------|----------------------------------
   -------------------------------|----------------------------------
   -------------------------------|----------------------------------
   -------------------------------|----------------------------------
   --19---------------------------|--19-----------17-17-17-18-18-18--
   -----0-16p0-0--16p0-0--16p0-0--|-----0-16p0-0--15-15-15-16-16-16--
[ Tab from: http://www.guitartabs.cc/tabs/l/limp_bizkit/just_like_this_tab_ver_6.html ]
   Intro #2/Chorus:
   ---------------------------|--------------------------
   ---------------------------|--------------------------
   ---------------------------|--------------------------
   ---------------------------|--------------------------
   --7------------------------|--7----------5-5-5-6-6-6--
   ----0-4p0-0--4p0-0--4p0-0--|----0-4p0-0--3-3-3-4-4-4--

   Verse:
   ---------------
   ---------------
   ---------------
   ---------------
   ------11--10---
   --12-----------

   Outro:
   --------------------------|----------10-11-12---
   --------------------------|----------10-11-12---
   --------------------------|-----------7--8--9---
   --------------------------|---------------------
   --7----------7----------7-|---------------------
   ----0-4p0-0----0-4p0-0----|-0-4p0-0-------------
Comments