Limp Bizkit - Just Like This Chords & Tabs

 

Just Like This Chords & Tabs

Limp Bizkit Chords & Tabs

Version: 4 Type: Tab 0 ratings
1 star 2 stars 3 stars 4 stars 5 stars
comments

Just Like This Tab

Just Like This  Limp Bizkit


Tabbed using www.GuitarAndBass.co.uk Transcription Tools v1.12
--------------------------------------------------------------
                                       
E||-----------------------------------|
B||-----------------------------------|
G||*----------------------------------|
D||*----------------------------------|
A||---19------------------------------|
E||-------0--16h15-0-0--16h0--16-0--0-|


                                            
------------------------------------------||
------------------------------------------||
-----------------------------------------*||
-----------------------------------------*||
--19---------------17-17-17-17-17/18-18---||
------0--16h15-0-0-15-15-15-15-15/16-16---||


                                                                  
-------------------------------|--------------------------------||
-------------------------------|--------------------------------||
*------------------------------|-------------------------------*||
*------------------------------|-------------------------------*||
---7---------------------------|--7-------------5-5-5-5-5/6-6---||
------0--4h3-0-0--4-0--4h0-0-0-|-----0--4h3-0-0-3-3-3-3-3/4-4---||


                          7x                                    
--------------------------||-----------------------------------|
--------------------------||-----------------------------------|
*------------------------*||*----------------------------------|
*------------------------*||*----------------------------------|
---------11--10~----------||---19------------------------------|
---12---------------------||-------0--16h15-0-0--16h0--16-0--0-|

[ Tab from: http://www.guitartabs.cc/tabs/l/limp_bizkit/just_like_this_tab_ver_4.html ]
                                            
------------------------------------------||
------------------------------------------||
-----------------------------------------*||
-----------------------------------------*||
--19---------------17-17-17-17-17/18-18---||
------0--16h15-0-0-15-15-15-15-15/16-16---||


                                                                  
-------------------------------|--------------------------------||
-------------------------------|--------------------------------||
*------------------------------|-------------------------------*||
*------------------------------|-------------------------------*||
---7---------------------------|--7-------------5-5-5-5-5/6-6---||
------0--4h3-0-0--4-0--4h0-0-0-|-----0--4h3-0-0-3-3-3-3-3/4-4---||

Tabbed using www.GuitarAndBass.co.uk Transcription Tools v1.12
--------------------------------------------------------------
                          7x                                    
--------------------------||-----------------------------------|
--------------------------||-----------------------------------|
*------------------------*||*----------------------------------|
*------------------------*||*----------------------------------|
---------11--10~----------||---19------------------------------|
---12---------------------||-------0--16h15-0-0--16h0--16-0--0-|


                                            
------------------------------------------||
------------------------------------------||
-----------------------------------------*||
-----------------------------------------*||
--19---------------17-17-17-17-17/18-18---||
------0--16h15-0-0-15-15-15-15-15/16-16---||


                                                            
-----------------------------|----------------------------||
-----------------------------|--------------10-11--12-----||
-----------------------------|--------------10-11--12-----||
-----------------------------|--------------7--8---9------||
--7-----------7------------7-|----------------------------||
-----0--4h3-0-----0--4h3-0---|----0--4h3-0----------------||


Tabbed using www.GuitarAndBass.co.uk Transcription Tools v1.12
--------------------------------------------------------------
Comments