Limp Bizkit - Just Drop Dead Chords & Tabs

 

Just Drop Dead Chords & Tabs

Limp Bizkit Chords & Tabs

Version: 1 Type: Tab 0 ratings
1 star 2 stars 3 stars 4 stars 5 stars
comments

Just Drop Dead Tab

just drop dead/ no one else had it so here it is. if you think some things wrong email me
at guitardude987@yahoo.com and then ill fix it. or if you want more of it.
Hey cool Nick
[ Tab from: http://www.guitartabs.cc/tabs/l/limp_bizkit/just_drop_dead_tab.html ]
 e-------------------------------------
 b ------------------------------------
 g-------------------------------------
 d-7-7--8-7-7--8-7-7--8-7-7------------
 a-7-7--8-7-7--8-7-7--8-7-7------------
 e-5-5--6-5-5--6-5-5--6-5-5------------  


 e---------------------------------
 b---------------------------------
 g---------------------------------
 d-7-7-7-7-8-8-8-8--7-7------------
 a-7-7-7-7-8-8-8-8--7-7------------
 e-5-5-5-5-6-6-6-6--5-5------------ 
 play this part struming up and down and kind of fast
Comments