Limp Bizkit - Jump Around Chords & Tabs

 

Jump Around Chords & Tabs

Limp Bizkit Chords & Tabs

Version: 3 Type: Bass Tab 0 ratings
1 star 2 stars 3 stars 4 stars 5 stars
comments

Jump Around Bass Tab

Limp bizkt - Jump around

5 string version - im not too sure about the tuning but just 
Experiment a little.

 " how many of you people remeber the house of pain?......"
 G||---------------------------------||
 D||---------------------------------||
 A||---------------------------------||
 E||-----12--------------------------||
 B||----------7-7----10---11---12----|| Repeat X?

[ Tab from: http://www.guitartabs.cc/tabs/l/limp_bizkit/jump_around_btab_ver_3.html ]
 "jump,jump,jump,jump"
 
 G||---------------------------------||
 D||---------------------------------||
 A||---------------------------------||
 E||---------------------------------||
 B||--0-0-0-0-0-0-0-0-0-0-0-0-0-0-0--|| 

 Repeat 

 G||---------------------------------||
 D||---------------------------------||
 A||---------------------------------||
 E||-----12--------------------------||
 B||----------7-7----10---11---12----|| Repeat X?

 Back to chorus
 
 G||---------------------------------||
 D||---------------------------------||
 A||---------------------------------||
 E||---------------------------------||
 B||--0-0-0-0-0-0-0-0-0-0-0-0-0-0-0--||

Ive watched the family values video and this is how i see him play it
hope you like it

Any queries,comments or corrections 

E-mail :- Horney145@hotmail.com thanks
Comments