Limp Bizkit - Itll Be Ok Chords & Tabs

 

Itll Be Ok Chords & Tabs

Limp Bizkit Chords & Tabs

Version: 8 Type: Tab 0 ratings
1 star 2 stars 3 stars 4 stars 5 stars
comments

Itll Be Ok Tab

   
Artist - Limp Bizkit
Title  - It'll be O.K.
From   - Choclate Starfish and the Hot Dog Flavored Water
Volt3r (Volt3r@mail.ru) ICQ = 228639154

h - hammeron
p - pulloff
/ - slide upwards
\ - slidedownwards
* - staccato (muting after picking)
x(X) - Death note
R - rest
pm - Palm muted
S(s) - slapping 
P(p) - popping
v - bend and release
^ - bend
H - hold
~ - vibrato
NOTE LENGHT
w - 1
h - 1/2
q - 1/4
e - 1/8
s - 1/16
t - 1/32
?.- dotted note (+ half of its own)

6str Guitar + 4str Bass
Tuning - Guitar Eb (D#G#C#F#A#D#) Bass C#G#C#F#
Tempo 100
Delay 450ms

A    play 5x
Delay 450ms
|---------------------------|---------------------------|
|---------------------------|---------------------------|
|4--------------------------|----2---2-2-2-5-5-5-5p4-0--|
|4-------3-----------3------|---------------------------|
|----7-------7---7-------7--|---------------------------|
|--0---0---0---0---0---0----|--3---3--------------------|
|  e s s s s e e s s s s e     e s s e s s e s s s s e
|---------------------------|---------------------------|
|---------------------------|--3------------------------|
|---------------------------|--------------------3-5----|
|-5-------------------------|---------------------------|
  w                            h.                s e.

|---------------------------|---------------------------|
|---------------------------|---------------------------|
|4--------------------------|----2---2-2-2-5-5-5-5p4-0--|
|4-------3-----------3------|---------------------------|
|----7-------7---7-------7--|---------------------------|
|--0---0---0---0---0---0----|--3---3--------------------|
|  e s s s s e e s s s s e     e s s e s s e s s s s e
|--------------7------------|--------------------7------|
|------------7---7----------|---------------------------|
|--5---------------7---8-7--|--3-------------3/8--------|
|-------------------------10|---------------------------|
   q.        e s s e   e ss    h+e           s s q

B 2x
Delay 450 ms
|-----------------------------------|
|------3---6^--3-6^----3---6^--3-6^-|
|4----------------------------------|
|4----------------------------------|
|-----------------------------------|
|-----------------------------------|
|      e   e   s s     e   e   s s
|-----------------------------------|
|-----------------------------------|
|-----------------------------------|
|--5-5-5-5-5-5-5---5-5-5---5-5-5-5--|
   s s s s s s e   s s e   s s s s

|-----------------------------------|
|------6---9^--6-9^----6---9^--6-9^-|
|4----------------------------------|
|4----------------------------------|
|-----------------------------------|
|-----------------------------------|
|      e   e   s s     e   e   s s
|------------------10----10----10---|
|-----------------------------------|
|--8-8-8-8-8-8-8-----8-8---8-8---8--|
|-----------------------------------|
   s s s s s s e   s s s s s s s s
[ Tab from: http://www.guitartabs.cc/tabs/l/limp_bizkit/itll_be_ok_tab_ver_8.html ]
C
Disto.
       *              *
|-----------------------------|3x
|-----------------------------|
|4----------------------------|
|4----------------------------|
|--0---0----5p3---0---0----1--|
|--0---0--------3-0---0----1--|
|  e   e.   s s s e   e.   e.
|-----------------------------|
|-----------------------------|
|------5----------------------|
|--0--------------------------|
   e   e
       *
|-----------------------------|
|-----------------------------|
|4----------------------------|
|4----------------------------|
|--0---0----5p3---0------x-1--|
|--0---0--------5-0------x-1--|
|  e   e.   s s s q      s e.
|-----------------------------|
|-----------------------------|
|------5----------------------|
|--0-----------------------1--|
   e   e                   e.
       *              *
|-----------------------------|8x
|-----------------------------|
|4----------------------------|
|4----------------------------|
|--0---0----5p3---0---0----1--|
|--0---0--------3-0---0----1--|
|  e   e.   s s s e   e.   e.
|-----------------------------|
|-----------------------------|
|------5----5p0---------------|
|--0------------3-0---0----1--|
   e   e.   s s s e   e.   e.
|---------------|
|---------------|
|3--------------|
|4-r---r---r----|
|----1---1---1--|
|----1---1---1--|
|  s e.s e.s e.
|---------------|
|---------------|
|---------------|
|----1---1---1--|
     e.  e.  e.

D
Delay 450ms
|-------------------------------------|
|-------------------------------------|
|4-----11---11-12p11---12p11------11--|
|4-0-0----0----------0-------0-10-----|
|-------------------------------------|
|-------------------------------------|
   e.s e  s s  s  s  s s  s  s s  s
|-----------------------------------17----20-17--|
|-----------------------------20-------20--------|
|-----------17----16-17-19-16----19--------------|
|-----19-------19--------------------------------|
|------------------------------------------------|
|--15----15--------------------------------------|
   e  s  s  s  s  s  s  s  s  s  s  s  s  s  s

|-------------------------------------|
|-------------------------------------|
|4-----11---11-12p11---12p11------11--|
|4-0-0----0----------0-------0-10-----|
|-------------------------------------|
|-------------------------------------|
|  e.s e  s s  s  s  s s  s  s s  s
|-------------------------------------|
|---------7---------------------------|
|--5----------------------------------|
|-------------------------------------|
   q.     h+e
|-----------------------------------17----20-17--|
|-----------------------------20-------20--------|
|-----------17----16-17-19-16----19--------------|
|-----19-------19--------------------------------|
|------------------------------------------------|
|--15----15--------------------------------------|
|  e  s  s  s  s  s  s  s  s  s  s  s  s  s  s
|------------------------------------------------|7x
|--3---------------------------------------------|
|-----------------------------------3------------|
|------------------------------------------------|
   h.                               q

e 2x
Disto           *
|--------------------------------|
|--------------------------------|
|4-------------------------------|
|4-------------------------------|
|---------9---------------9------|
|--0----0-----0-0---0-0-------0--|
|  e.   s e   s e   s e   e   e
|--------------------------------|
|--------------------------------|
|---------5---------------5------|
|--0----0-----0-0---0-0-------0--|
   e.   s e   s e   s e   e   e
|---------------------------------------------|
|--10---10---10---10/13-13-12-12-12-12-12-12--|
|4--------------------------------------------|
|4-7----7----7----7/-10-10-9--9--9--9--9--9---|
|---------------------------------------------|
|---------------------------------------------|
|  e    e    e    s  s  s  s  s  s  s  s  e
|---------------------------------------------|
|---------------------------------------------|
|---------------------------------------------|
|--3----3---------------3--5-----5--5---------|
   e    q+e             s  e     s  q

Play C
Play A tl end
Comments