Limp Bizkit - Itll Be Ok Chords & Tabs

 

Itll Be Ok Chords & Tabs

Limp Bizkit Chords & Tabs

Version: 7 Type: Tab 0 ratings
1 star 2 stars 3 stars 4 stars 5 stars
comments

Itll Be Ok Tab

   
TUNING C# A D G B E

I FOUND A ANOTHER TAB OF THIS SONG, BUT IT USED SOME CRAZY-ASS TUNING.
SO I DECIDED TO MAKE IT EASIER ON YA AND ONLY TUNE THE DOWN BOTTOM STRING.

LIMP BIZKIT

It'll Be OK - 11 - CHOCOLATE STARFISH AND THE HOT DOG FLAVORED WATER

Intro - ALSO PLAYED DURING PART OF THE VERSE
E |----------------------------------------------------------------------|
B |----------------------------------------------------------------------|
G |-------------------------------------------------1-1-1-1-4-4-4-4-3-3--|
D |-------1-2-1-----------1-2-1------------------------------------------|
A |----------------------------------------------------------------------|
C#|---0--------------0---------------------3-----------------------------|
[ Tab from: http://www.guitartabs.cc/tabs/l/limp_bizkit/itll_be_ok_tab_ver_7.html ]
Riff - DURING VERSE AND RIGHT BEFORE THE REFRAIN
E |---------------------------------------3----3-------3----3-------|
B |---2-2-5--2-5------2-2-5--2-5------2-2----2-----2-2----2---------|
G |-----------------------------------------------------------------|
D |-----------------------------------------------------------------|
A |-----------------------------------------------------------------|
C#|-----------------------------------------------------------------|

Heavy part - REFRAIN
E |-----------------------------------------------------|
B |-----------------------------------------------------|
G |-----------------------------------------------------|
D |--------3----3------------3-------------------4------|
A |--------4----4-----------------4--------------5------|
C#|--------0----0------0---------------0---0------------|
Comments