Limp Bizkit - Itll Be Ok Chords & Tabs

 

Itll Be Ok Chords & Tabs

Limp Bizkit Chords & Tabs

Version: 3 Type: Tab 0 ratings
1 star 2 stars 3 stars 4 stars 5 stars
comments

Itll Be Ok Tab

*Author : LimpBizkit
Song : It'll be Ok - Ending
By : Josh Borlos
Album : Chocolate Star Fish

This is the last part which I finally figured out. Hope u like it!

Tuning ( from high to low ) C#  G#  E  B  F#  C#

X - mute string

(#) - slide or tap with finger

C#-----------------------------------------------------------|
G#-----------------------------------------------------------|
E--------11-----11--12--11--------------12-11---------11-----|
B--0---------0--------------0---10--0----------0-------------|
F#-------------------------------------------------12--------|
C#-----------------------------------------------------------|

The first part, then quickly go to the next part
(this part must be played fast, some note should not played but tapped )
[ Tab from: http://www.guitartabs.cc/tabs/l/limp_bizkit/itll_be_ok_tab_ver_3.html ]
C#--------------------------------------------17-----20--17--|
G#-------------------------------------20--------20----------|
E----------------17------16-17-19-(16)----19-----------------|
B--------19---------19---------------------------------------|
F#-----------------------------------------------------------|
C#---15------15----------------------------------------------|

The first part, then quickly go to the next part


This is after the solo thingy
C#-----------------------------------------------------------|
G#-----------------------------------------------------------|
E------------------------------------------------------------|
B------------------------------------------------------------|
F#---------------9------------------------9------------------|
C#---0----0--X-------0--0-------0---0-X--------0---0---------|

This is the first part

C#-----------------------------------------------------------|
G#---10--10--X--13----13--13-----12-12-12--------------------|
E------------------------------------------------------------|
B-----7---7--X--10----10--10-----9--9--9---------------------|
F#-----------------------------------------------------------|
C#-----------------------------------------------------------|


GEAR USED

- B.C Rich - Virgin Platinum - Satin Black

- Crate Ampliphier - Taxi

- Yamaha 50 in 1 pedal

- Yamaha Strings - Super Light
Comments