Limp Bizkit - Itll Be Ok Chords & Tabs

 

Itll Be Ok Chords & Tabs

Limp Bizkit Chords & Tabs

Version: 2 Type: Tab 0 ratings
1 star 2 stars 3 stars 4 stars 5 stars
comments

Itll Be Ok Tab


	GUITAR TAB LIMP BIZKIT-IT'LL BE OK
	STANDARD TUNING for all you players with only six strings!
	s=slide  / notes in brackets are not picked but should be 
        sounded with slide or hammer on/pull off
	p/o=pull off h/o=hammer on

	INTRO AND MAIN THEME PLAY 8 TIMES

  E--------------------------------------------------------------------
  B--------------------------------------------------------------------
  G----------0---------0------4--4---4-4--s--(7)-7-7-7--p/o-(6)--6-----
  D--------4---4-----4---4---------------------------------------------
  A--------------------------------------------------------------------
  E-----0---------0--------0-------------------------------------------

      PART 2  PLAY TWICE
      USE A BIT OF DISTORTION FOR MORE ATTACK!
      USE 1/4 BEND ON G AND B FLAT TO MAKE IT SOUND RIGHT
  E--------------------------------------------------------------------
  B-----------------------------------8----11----8-----8-----11----8---
  G-----9----12----9---9----12----9------------------------------------
  D--------------------------------------------------------------------
  A--------------------------------------------------------------------
  E--------------------------------------------------------------------

     REPEAT THIS PART EXCEPT PLAY THIS ON B STRING

  B---8----11-----8----11------8-----11------8-------------------------

     PLAY MAIN THEME 4 TIMES THEN PLAY PART 2 FOUR TIMES
     PART 3 OVER "F***ING UP MY WHOLE LIFE".
     PLAY SINGLE NOTES FOR FIRST FOUR TIMES THEN RIFF WITH CHORDS

  E--------------------------------------------------------------------
  B--------------------------------------------------------------------
  G-------------------------------------PLAY FOUR TIMES----------------
  D-------------2------------------------------------------------------
  A------------------1-------------------------------------------------
  E----0---0--------------3----0---0---0---0---1-----------------------
[ Tab from: http://www.guitartabs.cc/tabs/l/limp_bizkit/itll_be_ok_tab_ver_2.html ]
     	

  E--------------------------------------------------------------------
  B-------------------------------PLAY EIGHT TIMES---------------------
  G--------------------------------------------------------------------
  D---1---1---2---------------1----1---1---1---------------------------
  A---1---1--------1----------1----1---1---1---3-----------------------
  E---0---0--------------3----0----0---0---0---1-----------------------


     PART 4 IS QUITE TRICKY, USE CHORUS WITH ECHO IF YOU 
     HAVE AN EFFECTS UNIT.
  
  E-------------------------------------------------
  B-------------------------------------------------
  G-----------13------13--14----14---13-------------CHORD PART WITH
  D-------14------14---------14---------------------ASCENDING RUN 
  A-------------------------------------------------BELOW.
  E----0--------------------------------------------
     

  E-------------------------------------17-p/o-15--19-p/o-17--22-p/o-19-
  B-12--15-p/o-12--14-h/o-15--17-p/o-15---------------------------------
  G---------------------------------------------------------------------
  D---------------------------------------------------------------------
  A------------------PLAY EIGHT TIMES-----------------------------------
  E---------------------------------------------------------------------

   FINAL PART IS ROCKED UP PLAY FOUR TIMES
   PART 5
  E--------------------------------------------------------------------
  B--------------------------------12--12--12--12--15--14--14--14--14--
  G------s-13--11--13--11--13--13--------------------------------------
  D--------------------------------9---9---9---9---12--11--11--11--11--
  A------s-11--9---11--9---11--11--------------------------------------
  E-0--0---------------------------------------------------------------

     OK THATS ALL THE BITS,NOW JUST PRACTISE AND PUT THEM
     ALL TOGETHER, IT SOUNDS PRETTY ACCURATE TO THE CD
     EXCEPT IT SHOULD BE PLAYED IN D FLAT.
     WORKED OUT BY gottarock@telco4u.net
Comments