Limp Bizkit - Indigo Flow Chords & Tabs

 

Indigo Flow Chords & Tabs

Limp Bizkit Chords & Tabs

Version: 1 Type: Tab 0 ratings
1 star 2 stars 3 stars 4 stars 5 stars
comments

Indigo Flow Tab

   
 -------------------------------------------------------------------

	Song: Indigo Flow
	Band: Limp Bizkit w/ Fear Factory
	Album: Three Dollar Bill Y'All $

 -------------------------------------------------------------------

Tuning: detuned a step and a half (c# f# b e g# c#) 

	R=tap with right hand
	L=tap with left hand   


  R  L R  R  L    R  L  R  L  R  R  L  R  R  L
|-------------------------------------------------|
|-------------------------------------------------|
|-------------------------------------------------|
|-14---14-14-9/10-14----14----14-14----14-14------|
|----7---------------10----10-------10-------9----|
|-12---12-12------12----12----12-12----12-12------|

[ Tab from: http://www.guitartabs.cc/tabs/l/limp_bizkit/indigo_flow_tab.html ]
  R  L R  R  L    R  L  R  L  R  R  L   R  L
|----------------------------------------------|
|----------------------------------------------|
|----------------------------------------------|
|-14---14-14-9/10-14----14----14-14-----14-----|
|----7---------------10----10-------10-----9---|
|-12---12-12------12----12----12-12-----12-----|

      
|--------------------------------------|
|--8----7~~~~--------------------------|
|-------------8------9-----------------|
|----------------------------9---------|
|--------------------------------------|
|--------------------------------------|

	Palm mute the open strings

|-----------------------------------------|
|-----------------------------------------|
|-----------------------------------------|
|-----------------------------------------|
|---2-----2/3---5--------5-----5----4-----|
|-0---0-0-----0-3--0--0--3--0--3--0-2-----|









Comments