Limp Bizkit - Im Broke Chords & Tabs

 

Im Broke Chords & Tabs

Limp Bizkit Chords & Tabs

Version: 1 Type: Bass Tab 0 ratings
1 star 2 stars 3 stars 4 stars 5 stars
comments

Im Broke Bass Tab

   
Song: I'm Broke
Artist: Limp Bizkit
Album: Significant Other
Tabbed By: Mark Valencia


This song is easy as hell, but fun to play, My tabbing
is on the dot, so enough listening to me , learn the
song already, peace!!!

Drop E to C#   (C#, A, D, G)

First Riff:

G||---------------||
D||---------------||
A||---------------|| 
E||-0-0-00-0-0----|| x8

Chorus:

G||-----4/3---6-------------||
D||---6-----4------6--------||
A||-4------------4----------|| x2  
E||------------------2-1-0--||

Back to 1st Riff:

G||--------------||
D||--------------||
A||--------------||
E||-0-0-00-0-0---|| x8

Chorus:

G||-----4/3---6--------------||
D||---6-----4------6---------||
A||-4-----------4------------|| x1
E||-------------------2-1-0--||
[ Tab from: http://www.guitartabs.cc/tabs/l/limp_bizkit/im_broke_btab.html ]
G||-----4/3---6-------------||
D||---6-----4------6--4-6---||
A||-4-----------4-----------|| x1
E||-------------------------||

Bridge:

G||-7/6---------||
D||-------------||
A||-----44-44---|| x16
E||-------------||

Heavy Riff:

G||-----------------------||
D||-----------------------||
A||-----------------------||
E||-1/0-00-0-0-0-1-0-0-1--|| x8

Chorus:

G||-----4/3---6--------------||
D||---6-----4-----6----------||
A||-4-----------4------------|| x1
E||------------------2-1-0---||

G||-----4/3---6------------||
D||---6-----4-----6--4-6---||
A||-4-----------4----------|| x1
E||------------------------||

Heavy Riff:

G||------------------------||
D||------------------------||
A||------------------------||
E||-1/0-00-0-0-0-1-0-0-1---|| x8

Last Riff:

G||------------||
D||------------||
A||------------||
E||-0-0-00-0---||

                       Your Done!

Comments