Limp Bizkit - Hot Dog Chords & Tabs

 

Hot Dog Chords & Tabs

Limp Bizkit Chords & Tabs

Version: 2 Type: Bass Tab 0 ratings
1 star 2 stars 3 stars 4 stars 5 stars
comments

Hot Dog Bass Tab

   
Song: Hot Dog
Band: Limp Bizkit
Album: Chocolate Starfish & The Hotdog Flavoured Water
Tabbed by: Drew Jamieson creepin@metallica.com 

C#, F#, B, E (Low to High)

1)
E--------------------------------------------
B--------------------------------------------
F#--------7--------7-7b8-------7-------------
C#--0-/10----0-/10-------0-/10---0-0-0-0-----
This is a very weak attempt at this Intro/Chorus Riff
The /10 is the best I could come up with 
[ Tab from: http://www.guitartabs.cc/tabs/l/limp_bizkit/hot_dog_btab_ver_2.html ]
2)
E------------------------------
B------------------------------
F#-7--------5-----------5------
C#----8--5-----0--8--5---------
Verse

3)
E--------
B--------
F#-------
C#-0--0--
"Hey, It's on"

4)
E------------------------------------
B------------------------------------
F#-----------------------------------
C#-0-0--0-0--0-0--0-0--6-0-0-6-0-----
"You, can't, bring, me, down"

5)
E-----------------------------------------------
B-----------------------------------------------
F#-------7-------7-------7---------7------------
C#-0-0-0---0-0-0---0-0-0-----0-0-0---6-0-0-6-0--
"Kiss My Starfish"

ok corrections are definatly welcome
because this is my first stab at it
please email if you are unsure of anything

Comments