Limp Bizkit - Hold On Chords & Tabs

 

Hold On Chords & Tabs

Limp Bizkit Chords & Tabs

Version: 9 Type: Tab 0 ratings
1 star 2 stars 3 stars 4 stars 5 stars
comments

Hold On Tab

   
Limp Bizkit: Hold on

tabbed by: Ben

There are only two parts to this song.

[ Tab from: http://www.guitartabs.cc/tabs/l/limp_bizkit/hold_on_tab_ver_9.html ]
Part A
E------------------------------------------------------------------|
B------------------------------------------------------------------|
G------9-----------9------------9-------------9--7h--9-------------|
D------------------------------------------------------------------|
A------------------------7-------------5---------------------------|
E--7---------5-----------------------------------------------------|
 

Part B
E------------------------------------------------------------------|
B------------------------------------------------------------------|
G------9-----------9------------9-------------9//10\\9-------------|
D------------------------------------------------------------------|
A------------------------7-------------5---------------------------|
E--7---------5-----------------------------------------------------|

This tab is best played with your pinky & index finger.
Comments