Limp Bizkit - Hold On Chords & Tabs

 

Hold On Chords & Tabs

Limp Bizkit Chords & Tabs

Version: 1 Type: Tab 0 ratings
1 star 2 stars 3 stars 4 stars 5 stars
comments

Hold On Tab

song title:hold on
artist:limp bizkit
submitted by:JONES A. CANONIZADO


[ Tab from: http://www.guitartabs.cc/tabs/l/limp_bizkit/hold_on_tab.html ]
  g--------2---------2---------2---------2---0h2--------------------------
  d-------------------------------------------------------------------
  a-----------------------5---------3---------------------------------
  e----5--------3-----------------------------------------------------


  g--------2---------2----------2--------2--2h3h2------------------------------
  d-------------------------------------------------------------------
  a-----------------------5---------3-----------------------------------
  e----5--------3-----------------------------------------------------
--

Comments