Limp Bizkit - Getcha Groove On Chords & Tabs

 

Getcha Groove On Chords & Tabs

Limp Bizkit Chords & Tabs

Version: 1 Type: Tab 0 ratings
1 star 2 stars 3 stars 4 stars 5 stars
comments

Getcha Groove On Tab

Author/Artist: Limp Bizkit
Title: Getcha Groove On
Album: Chocolate Starfish
Transcribed by: Giz (Richard Harris)
Email: giz_hornbeast@hotmail.com

Note:  I am aware that Wes' tuning is C#,F#,B,E,G#,C# but i couldnt 
be bothered to tune down for a song that is primarily played on a keyboard.  
Therefore the song is in standard tuning and it is a keyboard arrangement for 
the guitar.

Play through intro,verse and chorus but not the break
-|--------------------------|----------------------------|--------------------
-|--------------------------|----------------------------|--------------------
-|--15--13--11--10--11--13--|--13--11--10--8--10--8--11--|--------------------
-|--------------------------|----------------------------|--------------------
-|--------------------------|----------------------------|--------------------
-|--------------------------|----------------------------|--------------------
                         x2                           x2                      
[ Tab from: http://www.guitartabs.cc/tabs/l/limp_bizkit/getcha_groove_on_tab.html ]
-|--8h11---t13-|-------------|-----------13-|----------
-|-------------|-------------|-----13h16----|----------
-|-------------|-------------|--------------|----------
-|-------------|-------------|--------------|----------
-|-------------|-------------|--------------|----------
-|-------------|-------------|--------------|----------
  play behind the above          or (easier)                                            


Repeat throughout whole song
-|-------------|---------------|----------------------------------------------
-|-------------|---------------|----------------------------------------------
-|-------------|---------------|----------------------------------------------
-|-7-7---7---7-|--5-5----5---5-|----------------------------------------------
-|-7-7---7---7-|--5-5----5---5-|----------------------------------------------
-|-5-5---5---5-|--3-3----3---3-|----------------------------------------------
            x2              x2                                                

Note:  You will have to listen to the song carefully to breakdown the 3 parts properly.
Comments