Limp Bizkit - Full Nelson Chords & Tabs

 

Full Nelson Chords & Tabs

Limp Bizkit Chords & Tabs

Version: 3 Type: Tab 0 ratings
1 star 2 stars 3 stars 4 stars 5 stars
comments

Full Nelson Tab

   
Name: Willy

Tabs: artist: LImp BIzkit
tab: Full Nelson
album: Choclate Starfish and the Hot Dog Flavoured Water
transcribed by: bigwill99

This song is kinda tricky, i had a little trouble tryin to get it 
right.I hope you like it!!

Usual Limp Bizkit Tuning:C,F,B,E,G,C low to high

intro v= strum up

C/---------------------------------------------------------/
G/---------------------------------------------------------/
E/--------v---------v-----v---------v-----------v----v-----/
B/-15-15-15-14--15-15-15-15-14--15-15-15-14-15-15-15-15-14-/
F/-13-13-13-12--13-13-13-13-12--13-13-13-12-13-13-13-13-12-/
C/---------------------------------------------------------/

verse-clean(00:15)
[ Tab from: http://www.guitartabs.cc/tabs/l/limp_bizkit/full_nelson_tab_ver_3.html ]
C/---------------------------------------------------------/
G/---------------------------------------------------------/
E/---------------------------------------------------------/
B/---------------------------------------------------------/
F/---------------------------------------------------------/
C/--5------5-----5-----5-----5-----5-----5/6-----5------5--/

chorus(00:44)

C/---------------------------------------------------------/
G/---------------------------------------------------------/
E/---------------------------------------------------------/
B/--2--2----------------7---5---7---5---2------------------/
F/--2--2--------------0-7-0-5-0-7-0-5-0-2------------------/
C/--0--0--3--3--4-----0-5-0-3-0-5-0-3-0-0------------------/
          H  H  H

repeat verse
repeat chorus

interval(02:21)

C/---------------------------------/
G/---------------------------------/
E/---------------------------------/
B/--7-----7-----7-----7------------/
F/--7-----7-----7-----7------------/
C/--5-----5-----5-----5------------/
hold the chords and restrum after you hear it in the song

breakdown

C/-----------/
G/-----------/
E/-----------/
B/--2-2-2-2--/
F/--2-2-2-2--/
C/--0-0-0-0--/

strum chords all through" Burn this MF down"
repeat chorus

There it is , hope its good enough send corrections and comments to 
bigwill99@hotmail.com .

Comments