Limp Bizkit - Full Nelson Chords & Tabs

 

Full Nelson Chords & Tabs

Limp Bizkit Chords & Tabs

Version: 2 Type: Tab 0 ratings
1 star 2 stars 3 stars 4 stars 5 stars
comments

Full Nelson Tab

Song - Full  Nelson
Artist - Limp Bizkit
Tabbed by - Steel Picker
Tuning - Standard for this one, although Wes Borland tunes it into a different tuning.
Note: This song is very much like Break Stuff, very loud and heavy. The whole song is really just the same dynamic. So keep in mind that you have to stay loud throughout the entire song, except the verse.
[ Tab from: http://www.guitartabs.cc/tabs/l/limp_bizkit/full_nelson_tab_ver_2.html ]
Intro   _____________________________________________________________________
          |                                                                    x2                                                                  |
E-------------------------------------------------------------------------------------------------------------------
B-------------------------------------------------------------------------------------------------------------------
G------5-------4---------------------------5------4-----------------------------5------4-------------------------
D------5-------4------5-----4------2-----5------4-------5----4----2----------5------4-----5----4-----2-------
A------3-------2------5-----4------2-----3------2-------5----4----2----------3------2-----5----4-----2-------
E----------------------3-----2------0---------------------3----2----0------------------------3----2-----0-------
	ff
                                                               Verse/Outro         Repeat through out verse 1 and 2
E-------------------------------------------------------------------------------------------------------------------
B-------------------------------------------------------------------------------------------------------------------
G------5-----4------------------------------------------12---11---11----11---12----11---12---11------------
D------5-----4--------5-----4------(2)----------------------------------------------------------------------------
A------3-----2--------5-----4------(2)----------------------------------------------------------------------------
E----------------------3-----2------(0)----------------------------------------------------------------------------


Chorus                                                                 
Repeat 5 times
E-------------------------------------------------------------------------------------------------------------------
B-------------------------------------------------------------------------------------------------------------------
G-------------------------------------------------------------------------------------------------------------------
D-----------4------4-------------7-------9------7-------9----7------9-----7------9------7/------9-----4---4--A-----------2------2-------------7-------9------7-------9----7------9-----7------9------7/------9-----2---2--
E-----------2------2-------------5-------7------5-------7----5------7-----5------7------5/------7-----2---2--
	ff
Bridge
                                             Strum notes on part 'How pathetic are people..' and 'Down! Down!'
E-------------------------------------------------------------------------------------------------------------------
B-------------------------------------------------------------------------------------------------------------------
G-------------------------------------------------------------------------------------------------------------------
D-------(2)----------------------(2)-----------------------Go back to Chorus--------------------------------
A-------(2)----------------------(2)-------------------------------------------------------------------------------
E-------(0)----------------------(0)--------------------------------------------------------------------------------
	f        Cres.                  ff
					That's it! Just repeat the Chorus and when he says, 'Just shut your f----n mouth!' Just play the verse again but very quiet. Then play the verse when DJ Lethal comes in. That song is a bit more difficult than the other songs. 
							-----Steel Picker--------
Comments