Limp Bizkit - Full Nelson Chords & Tabs

 

Full Nelson Chords & Tabs

Limp Bizkit Chords & Tabs

Version: 2 Type: Bass Tab 0 ratings
1 star 2 stars 3 stars 4 stars 5 stars
comments

Full Nelson Bass Tab

   
Song: Full Nelson
Band: Limp Bizkit
Album: Chocolate Starfish & The Hotdog Flavoured Water
Tabbed by: Drew Jamieson creepin@metallica.com 

C#, F#, B, E (Low to High)

1)
B----------------------------
E-7b8r7---------8-7----------
F#------0-0-0-0-----0-0-0-0--
C#---------------------------

2)
E----------------------------
B----------------------------
F#---------------------------
C#-5-5-5-5-5-5-5-5-5-5-5-5-5-
Before the verse. Played slow then builds up faster
[ Tab from: http://www.guitartabs.cc/tabs/l/limp_bizkit/full_nelson_btab_ver_2.html ]
3)
B----------------------
E---------7------------
F#----------7----------
C#-5b-5b------5--------
Verse Just bend a vibrato the 5th fret and then do the arpeggio

4)
B----------------------------------
E-----------------------------7b8--
F#-0-0-0--3-5-0-0--3-5-0-0--3------
C#---------------------------------
"You'll get knocked the fuck out!"

5)
E------2-----5-----7----------
B----2-----5-----7------5-----
F#-0-----3-----5------5-------
C#------------------3---------
"So where you at?"

6)
E------------------
B------------------
F#-1-0-0-0---------
C#-----------------
"How pathetic are people?"
"Burn this mother fucker down"
Slight Variations on each

corrections welcome
Comments