Limp Bizkit - Faith Chords & Tabs

 

Faith Chords & Tabs

Limp Bizkit Chords & Tabs

Version: 9 Type: Tab 0 ratings
1 star 2 stars 3 stars 4 stars 5 stars
comments

Faith Tab

   
-----------------------------------------------------------------------
			     Faith - Limp Bizkit
-----------------------------------------------------------------------
Tabbed by: Jed Kennedy
Email:	the_goods8@yahoo.com

Tuning:	Standard (eadgbe)

Intro:
e|--------------------------------------------------------------------|
B|--------------------------------------------------------------------|
G|--------------------------------------------------------------------|
D|---9-x-x-x-x-9-x-x-9-9-------9-x-x-x-x-9----------------------------|
A|---9-x-x-x-x-9-x-x-9-9X3----9-x-x-x-x-9----------------------------|
E|---7-x-x-x-x-7-x-x-7-7-------7-x-x-x-x-7----------------------------|
 
Verse:             
e|--------------------------------------------------------------------|
B|--------------------------------------------------------------------|
G|--------------------------------------------------------------------|
D|---9-x-x-x-x-9-x-x-9-9----7-x-x-x-x-7-x-x-7-7--9-x-x-x-x-9-x-x-9-9--|
A|---9-x-x-x-x-9-x-x-9-9-X2-7-x-x-x-x-7-x-x-7-7--9-x-x-x-x-9-x-x-9-9--|
E|---7-x-x-x-x-7-x-x-7-7----5-x-x-x-x-5-x-x-5-5--7-x-x-x-x-7-x-x-7-7--|
[ Tab from: http://www.guitartabs.cc/tabs/l/limp_bizkit/faith_tab_ver_9.html ]
Pre-chorus:
e|--------------------------------------------------------------------|
B|--------------------------------------------------------------------|
G|--------------------------------------------------------------------|
D|-----9----------7----------9----------7----------9----------7-------|
A|---9---9------7---7------9---9------7---7------9---9------7---7-----|
E|-7--------7-5--------5-7--------7-5--------5-7--------7-5-----------|

e|-----------------3--------------------------------------------------|
B|-----------3h5p3----------------------------------------------------|
G|---------3----------------------------------------------------------|
D|-------5------------------------------------------------------------|
A|-----5--------------------------------------------------------------|
E|-5-3----------------------------------------------------------------|

Chorus: (Heavy Distortion)
e|--------------------------------------------------------------------|
B|--------------------------------------------------------------------|
G|--------------------------------------------------------------------|
D|--9-x-x-x-x-9-x-x-9-9-----------------------------------------------|
A|--9-x-x-x-x-9-x-x-9-9-X3--------------------------------------------|
E|--7-x-x-x-x-7-x-x-7-7-----------------------------------------------|

| /  slide up
| \  slide down
| h  hammer-on
| p  pull-off
| ~  vibrato
| +  harmonic
| x  Mute note
=======================================================================
Comments