Limp Bizkit - Faith Chords & Tabs

 

Faith Chords & Tabs

Limp Bizkit Chords & Tabs

Version: 1 Type: Tab 0 ratings
1 star 2 stars 3 stars 4 stars 5 stars
comments

Faith Tab

Limp Bizkit
Faith
Tabbed by: Tim Horner



Well I guess it would be nice, if I could touch your body...

e-----------------------------------------------------------|
B-----------------------------------------------------------|
G-----------------------------------------------------------|
D--9-9-9-9-9-9-9------7-7-7-7-7-7-7-------------------------|
A--9-9-9-9-9-9-9------7-7-7-7-7-7-7-------------------------|
E--7-7-7-7-7-7-7------5-5-5-5-5-5-5-------------------------|

But I need some time for that emotion....

e-----------------------------------------------------------|
B--------2-------------4------------------------------------|
G------2---2---------4---4----------------------------------|
D----2-------2-----4----------------------------------------|
A--0-------------2------------------------------------------|
E-----------------------------------------------------------|

Cos I gotta FAITH.......
[ Tab from: http://www.guitartabs.cc/tabs/l/limp_bizkit/faith_tab.html ]
LOTS OF DISTORTION
e-----------------------------------------------------------|
B-----------------------------------------------------------|
G-----------------------------------------------------------|
D--9-9-9-9-9-9-9------7-7-7-7-7-7-7-------------------------|
A--9-9-9-9-9-9-9------7-7-7-7-7-7-7-------------------------|
E--7-7-7-7-7-7-7------5-5-5-5-5-5-5-------------------------|



Second verse is the same but faster.

Get the fuck up!

LOTS OF DISTORTION and scratches and get a DJ if you can
e-----------------------------------------------------------|
B-----------------------------------------------------------|
G-----------------------------------------------------------|
D--9-9-9-9-9-9-9------7-7-7-7-7-7-7-------------------------|
A--9-9-9-9-9-9-9------7-7-7-7-7-7-7-------------------------|
E--7-7-7-7-7-7-7------5-5-5-5-5-5-5-------------------------|

George Michael would be proud, not too proud though, 
he might try something
Comments