Limp Bizkit - Faith Chords & Tabs

 

Faith Chords & Tabs

Limp Bizkit Chords & Tabs

Version: 6 Type: Bass Tab 0 ratings
1 star 2 stars 3 stars 4 stars 5 stars
comments

Faith Bass Tab

intro

G-----------------------------------------------------------------
D-----------------------------------------------------------------
A-------------------------7---------------------------------------
E-------7-----7-----5--------7------------------------------------
B-----------------------------------------------------------------

verse

G-----------------------------------------------------------------
D------------7----------------------9------------------7----------         
A---------7----------------------9-------------------7------------
E-----5------------6h7--------7----------6h7------5------------7--
B---------------0------7-5-------------0-----7------------0-------

chourus

G-----------------------------------------------------------------
D-----------------------------------------------------------------
A-----------------------------------------------------------------
E-----77-77-77-77-7---77-77-77-7---77-77-77-7---77-77-77----------
B-----------------------------------------------------------------

G-----------------------------------------------------------------
D-----------------------------------------------------------------
A-----------------------------------------------------------------
E----7-77-77-7777--7-77-77-7777--5-55-55-5555---7-77-77-6h7-------
B----------------------------------------------------------7-5----
[ Tab from: http://www.guitartabs.cc/tabs/l/limp_bizkit/faith_btab_ver_6.html ]
G-----------------------------------------------------------------
D-----------------------------------------------------------------
A----------------------------------------------7------------------
E----7-77-77-7777--7-77-77-7777--5-55-55-5555----7-77-77-7777-----
B-----------------------------------------------------------------

Back to verse

Back to chourus

outro

G-----------------------------------------------------------------
D-----------------------------------------------------------------
A-----------------------------------------------------------------
E-22-22-22-22-0000--22-22-22-22-0000-22-22-22-22-0000--22-22-22-22
B-----------------------------------------------------------------

G-----------------------------------------------------------------
D-----------------------------------------------------------------
A-----------------------------------------------------------------
E--0000--22-22-22-22-0000--22-22-22-22-0000--22-22-22-22-0000--22-
B-----------------------------------------------------------------

G-----------------------------------------------------------------
D-----------------------------------------------------------------
A-----------------------------------------------------------------
E-22-22-22-0000--77-77-77-77-5555--77-77-77-77-5555--77-77-77-77--
B-----------------------------------------------------------------

G---------------------------------------10---9----12---10---9h10--
D-------------------------------------0----0----0----0----0-------
A-----------------------------------------------------------------
E-5555--77-77-77-77-5555------------------------------------------
B-----------------------------------------------------------------
Comments