Limp Bizkit - Faith Chords & Tabs

 

Faith Chords & Tabs

Limp Bizkit Chords & Tabs

Version: 4 Type: Bass Tab 0 ratings
1 star 2 stars 3 stars 4 stars 5 stars
comments

Faith Bass Tab

                       I guess it...        But I...                                      
G|--------------------|-------------------|-------------------|
D|--------------------|-------------------|-------------------|
A|--------------------|---------------7---|---------------7---|
E|-------------7------|-7----7----5----7--|-7----7----5----7--|

Oh, but I need...                                      
G|----------------|--------------------|--------------------|
D|----------7-----|--------------------|--------------------|
A|------7---------|-------------7------|-------------7------|
E|--5-----------7-|---7s9-765----5---7-|---7s9-765----5---7-|

I gotta have faith!  
G|------------------------|------------------------|
D|-------------------10-10|-------------------10-10|
A|------------------------|------------------------|
E|--7--x-7--x-7-x-x-7--7--|--7--x-7--x-7-x-x-7--7--|

G|------------------------|----------------|
D|-------------------10-10|----------------|
A|------------------------|----------------|
E|--7--x-7--x-7-x-x-7--7--|--7--x-7--x-7-x-|

Baby...
G||----------------------------|----------------------------|
D||--9---x-9---x-9---x-9-9-9-9-|--9---x-9---x-9---x-9-9-9-9-|
A||------x-----x-----x---------|------x-----x-----x---------|
E||--7---x-7---x-7---x-7-7-7-7-|--7---x-7---x-7---x-7-7-7-7-|
                                                      
G|----------------------------|----------------------------||
D|--7---x-7---x-7---x-7-7-7-7-|--9---x-9---x-9---x-9-9-9-9-||
A|------x-----x-----x---------|------x-----x-----x---------||
E|--5---x-5---x-5---x-5-5-5-5-|--7---x-7---x-7---x-7-7-7-7-||
[ Tab from: http://www.guitartabs.cc/tabs/l/limp_bizkit/faith_btab_ver_4.html ]
G||----------------------------|----------------------------|
D||--9---x-9---x-9---x-9-9-9-9-|--9---x-9---x-9---x-9-9-9-9-|
A||------x-----x-----x---------|------x-----x-----x---------|
E||--7---x-7---x-7---x-7-7-7-7-|--7---x-7---x-7---x-7-7-7-7-|
                                                       
G|----------------------------|----------------------------||
D|--7---x-7---x-7---x-7-7-7-7-|--9---x-9---x-9---x-9-9-9-9-||
A|------x-----x-----x---------|------x-----x-----x---------||
E|--5---x-5---x-5---x-5-5-5-5-|--7---x-7---x-7---x-7-7-7-7-||

Before this river...  
G|----------------|--------------------|--------------------|
D|----------7-----|--------------------|--------------------|
A|------7---------|-------------7------|-------------7------|
E|--5-----------7-|---7s9-765----5---7-|---7s9-765----5---7-|

I gotta have faith!                                                              
G|------------------------|------------------------|
D|-------------------10-10|-------------------10-10|
A|------------------------|------------------------|
E|--7--x-7--x-7-x-x-7--7--|--7--x-7--x-7-x-x-7--7--|

G|------------------------|----------------|
D|-------------------10-10|----------------|
A|------------------------|----------------|
E|--7--x-7--x-7-x-x-7--7--|--7--x-7--x-7-x-|

Get the fuck up!                                                           
G|--------------------------|--------------------------|
D|--------------------------|--------------------------|
A|--7--x-7--x-7-x-x-7-7-7-7-|--7--x-7--x-7-x-x-7-7-7-7-|
E|--7--x-7--x-7-x-x-7-7-7-7-|--7--x-7--x-7-x-x-7-7-7-7-| (repeat 5x)

G|------------------------|----------------|
D|------------------------|----------------|
A|--7--x-7--x-7-x-x-7-7-7-|--7--x-7--x7x77-|
E|--7--x-7--x-7-x-x-7-7-7-|--7--x-7--x7x77-|

You gotta?
corrections and questions to alexbizkit_lb@hotmail.com
http://www.geocities.com/lbespanol  
Comments