Limp Bizkit - Faith Chords & Tabs

 

Faith Chords & Tabs

Limp Bizkit Chords & Tabs

Version: 3 Type: Bass Tab 0 ratings
1 star 2 stars 3 stars 4 stars 5 stars
comments

Faith Bass Tab

Limp Bizkit - Faith (Bass Riff).
 Tabbed by Gur Samuel kissmyass124@hotmail.com.
  
Intro            Verse 1                         
----------------|--------------------------------|
----------------|--------------------------------|
--------2---2---|2---2---0---2---2---2---0-0-2---|
----------------|--------------------------------|
Break
--------------------------------
-----020-----020----------------
0---2--20---2--20---2-----------
------------------------2---2---
Chorus           Verse 2
----------------|--------------------------------
----------------|--------------------------------
2222222222222222|22222222000022222222222200002222
----------------|--------------------------------
Break
--------------------------------
-----020-----020----------------
0---2--20---2--20---2-----------
------------------------2---2---
Chorus           Final Bit
----------------|--------------------------
----------------|------------1------------1
2222222222222222|222222424242-222222424242-
----------------|-------------------------- 
:: Ultimate Guitar Archive :: 
http://www.ultimate-guitar.com 




[ Tab from: http://www.guitartabs.cc/tabs/l/limp_bizkit/faith_btab_ver_3.html ]
Comments