Limp Bizkit - Eat You Alive Chords & Tabs

 

Eat You Alive Chords & Tabs

Limp Bizkit Chords & Tabs

Version: 8 Type: Tab 0 ratings
1 star 2 stars 3 stars 4 stars 5 stars
comments

Eat You Alive Tab

   
Limp Bizkit
Results May Vary
Eat You Alive
Tabbed by: Paul

this is the RIGHT way to play it. its in Wes Borland tuning, which is 1 and a half steps down


intro
C#|-----------------------------------------------------------------------|
G#|--------------0--------------0--------------0----------0---------------|
E |----------0---0----------0---0----------0---0----------0---------------|
B |----------0---0----------0---0----------0---0----------0---------------|
F#|----4-4-4-5---5----4-4-4-5---5----4-4-4-5---5----4-4-4-5---------------|
C#|--0h2-2-2-3-0-3--0h2-2-2-3-0-3--0h2-2-2-3-0-3--0h2-2-2-3---------------|


chorus
heavy distortion
C#|------------------------------------------------------------------------|
G#|----------0---0----------0---0----------0---0----------0----------------|
E |----------0---0----------0---0----------0---0----------0----------------|
B |----4-4-4-5---5----4-4-4-5---5----4-4-4-5---5----4-4-4-5----------------|
F#|----4-4-4-5---5----4-4-4-5-2-5----4-4-4-5-2-5----4-4-4-5----------------|
C#|--0h2-2-2-3-0-3--0h2-2-2-3-0-3--0h2-2-2-3-0-3--0h2-2-2-3----------------|


verse
C#|-----------------------------------------------------------------------|
G#|-----------------------------------------------------------------------|
E |-----------------------------------------------------------------------|
B |-----------------------------------------------------------------------|
F#|----4-4-4-5-2-4----4-4-4----------4-4-4-5-2-4--2-4-4-4-----------------|
C#|--0-2-2-2-3-0-2--0-2-2-2--------0-2-2-2-3-0-2--0-2-2-2-----------------|
pm   . . . . . . .  . . . .        . . . . . . .  . . . .


pre chorus
               /b/              /b/              /b/               /b/
C#|-----------------------------------------------------------------------|
G#|-----------------------------------------------------------------------|
E |---1111111111^1111--1111111111^1111--1111111111^1111--1111111111^1111--|
B |----x-x-x-x-x--x-x---x-x-x-x-x--x-x---x-x-x-x-x--x-x---x-x-x-x-x--x-x--|
F#|----9-9-9-9-9^-9-9---9-9-9-9-9^-9-9---9-9-9-9-9^-9-9---9-9-9-9-9^-9-9--|
C#|-----------------------------------------------------------------------|


chorus

verse

prechorus

chorus

[ Tab from: http://www.guitartabs.cc/tabs/l/limp_bizkit/eat_you_alive_tab_ver_8.html ]
chorus 2
C#|----------------------------------------------------------------------|
G#|----------------------------------------------------------------------|
E |--------------------111111--------------------------------------------|
B |--7-7-7-7-7-7-9-9-9--x-x-x---4-4-4-4-4-4-4-4-4-4-4-4------------------|
F#|--5-5-5-5-5-5-7-7-7--9-9-9---4-4-4-4-4-4-4-4-4-4-4-4------------------|
C#|-----------------------------2-2-2-2-2-2-2-2-2-2-2-2------------------|


C#|----------------------------------------------------------------------|
G#|----------------------------------------------------------------------|
E |--------------------111111--------------------------------------------|
B |--7-7-7-7-7-7-9-9-9--x-x-x---4----------------------------------------|
F#|--5-5-5-5-5-5-7-7-7--9-9-9---4~~~~~~~---------------------------------|
C#|-----------------------------2~~~~~~~---------------------------------|



bass interlude



interlude
clean w/light delay
C#|---------------------------------------------------------------------|
G#|--------15------------15-----------15------------15------------------|
E |-----14----14------14-----------14----14------14---------------------|
B |--12-------------------------------------------------12-14-----------|
F#|---------------15-----------14------------15-------------------------|
C#|---------------------------------------------------------------------|


interlude
phaser & distortion
C#|-----------------------------------------------------------------------|
G#|--------15----------------15--------------15----------------15---------|
E |-----14----------------14--------------14----------------14------------|
B |--12-------12-12h14-12--------12-14-12-------12-12h14-12-------12-14---|
F#|-----------------------------------------------------------------------|
C#|-----------------------------------------------------------------------|


chorus 2


fill
C#|------------------------------|
G#|--------------0----------0----|
E |----------0---0----------0----|
B |----------0---0----------0----|
F#|----4-4-4-5---5----4-4-4-5----|
C#|--0h2-2-2-3-0-3--0h2-2-2-3----|


main


end
C#|-------------------------------------|
G#|----------0---0----------0-----------|
E |----------0---0----------0-----------|
B |----4-4-4-5---5----4-4-4-5---5--4----|
F#|----4-4-4-5---5----4-4-4-5---5--4----|
C#|--0h2-2-2-3-0-3--0h2-2-2-3-0-3--2----|
Comments